Song name
# A B C D E F G H I J K L M N O P Q R S T U V W X Y Z

Exies - My Ordinary World Acoustic tab

This might not necessarily be what the electric does in the actual 
song, but when i play it on the acoustic this is how i do it, and it 
sounds good. I borrowed some from other tabs of this song, but 
added some of my own things that I think sound better than before. 
this is my first tab eva, so hopefully its good, feel free to shoot it down 
if you want though.

Drop-C

verse-1  x5
d(------------------------------------)
a(------------------------------------)
f(------4--------2--------------------)
c(------------------------5-----2-----)
g(--222---22-000---00-------------2-0-)
C(--------------------555---222-------)


pre-chorus
d(------------------------------------------)
a(------------------------------------------)
f(--7-7-77777-7-7-77777-6-6-66666-4-4-xx-7-9)
c(--7-7-77777-7-7-77777-6-6-66666-4-4-xx-7-9)
g(--5-5-55555-5-5-55555-4-4-44444-2-2-xx-5-7)
C(--5-5-55555-5-5-55555-4-4-44444-2-2-xx-5-7)

chorus x 4                  fourth time
d(-----------------I--------I---)
a(-----------------I--------I---)
f(-4-4-444444--7-7-I-999999-I-9-)
c(-4-4-444444--7-7-I-999999-I-9-)
g(-2-2-000000--5-5-I-777777-I-7-)
C(-2-2-000000--5-5-I-777777-I-7-)

verse-2  x5
d(------------------------------------)
a(------------------------------------)
f(------4--------2--------------------)
c(------------------------5-----2-----)
g(--222---22-000---00-------------2-0-)
C(--------------------555---222-------)

pre-chorus
d(------------------------------------------)
a(------------------------------------------)
f(--7-7-77777-7-7-77777-6-6-66666-4-4-xx-7-9)
c(--7-7-77777-7-7-77777-6-6-66666-4-4-xx-7-9)
g(--5-5-55555-5-5-55555-4-4-44444-2-2-xx-5-7)
C(--5-5-55555-5-5-55555-4-4-44444-2-2-xx-5-7)

chorus x 4                       fourth time
d(-----------------I--------I---)
a(-----------------I--------I---)
f(-4-4-444444--7-7-I-999999-I-9-)
c(-4-4-444444--7-7-I-999999-I-9-)
g(-2-2-000000--5-5-I-777777-I-7-)
C(-2-2-000000--5-5-I-777777-I-7-)

bridge
d(---------------------------------)
a(---------------------------------)
f(--7-7-7777-77-11-11-11111111-119-)
c(--7-7-7777-77-11-11-11111111-119-)
g(--5-5-5555-55-9--9--9-9-9-9--9-7-)
C(--5-5-5555-55-9--9--9-9-9-9--9-7-)

bridge continued
d(--------------------------)
a(--------------------------)
f(--7-7-7777-77-4-4-4444-46-)
c(--7-7-7777-77-4-4-4444-46-)
g(--5-5-5555-55-2-2-2222-24-)
C(--5-5-5555-55-2-2-2222-24-)

bridge continued
d(---------------------------------)
a(---------------------------------)
f(--7-7-7777-77-11-11-11111111-119-)
c(--7-7-7777-77-11-11-11111111-119-)
g(--5-5-5555-55-9--9--9-9-9-9--9-7-)
C(--5-5-5555-55-9--9--9-9-9-9--9-7-)

bridge continued
d(-----------------------)
a(-----------------------)
f(--7-7-7777-77-9-9-9-99-)
c(--7-7-7777-77-9-9-9-99-)
g(--5-5-5555-55-7-7-7-77-)
C(--5-5-5555-55-7-7-7-77-)

verse riff
d(------------------------------------)
a(------------------------------------)
f(------4--------2--------------------)
c(------------------------5-----2-----)
g(--222---22-000---00-------------2-0-)
C(--------------------555---222-------)

chorus x 4                  fourth time
d(-----------------I--------I---)
a(-----------------I--------I---)
f(-4-4-444444--7-7-I-999999-I-9-)
c(-4-4-444444--7-7-I-999999-I-9-)
g(-2-2-000000--5-5-I-777777-I-7-)
C(-2-2-000000--5-5-I-777777-I-7-)

verse riff
d(------------------------------------)
a(------------------------------------)
f(------4--------2--------------------)
c(------------------------5-----2-----)
g(--222---22-000---00-------------2-0-)
C(--------------------555---222-------)

the end
Tap to rate this tab
# A B C D E F G H I J K L M N O P Q R S T U V W X Y Z