Song name
# A B C D E F G H I J K L M N O P Q R S T U V W X Y Z

Exies - Fear Of Being Alone tab

The Exies - Fear of Being Alone
From the record "A Modern Way of Living with the Truth"
Tuning: CGCFAD (low to high)

Great song off a great record.  The Exies really got screwed somehow b/c no one knows 
good this CD is or really that they even put one out!!

As usual, here is the video that I tabbed the song from:

http://www.youtube.com/watch?v=URVVKSTG2HE

Guitar 1 - Scott Stevens
Guitar 2 - Chris Skane

INTRO - Part 1
Guitar 1                   Both Guitars enter here - V
D|---------------------------------------------------------|
A|---------------------------------------------------------|
F|---------------------------------------------------6666--|
C|---------------------------------------------------xxxx--|
G|------------xxx--------------------------xxx-------4444--|
C|3-5-5-3-5-3-xxx-3-5-3-5-3-0--3-5-5-3-5-3-xxx-3-5-3-------|
  . . . . . .     . . . . . .  . .grad. release ->

INTRO - Part 2
Both Guitars
D|---------------------------------------------------------|
A|---------------------------------------------------------|
F|---------------------------------------------------------|
C|3-5-5-3-5-3-xxx-3-5-3-5-3-0--3-5-5-3-5-3-xxx-3-5-3-5-3-0-|
G|3-5-5-3-5-3-xxx-3-5-3-5-3-0--3-5-5-3-5-3-xxx-3-5-3-5-3-0-|
C|3-5-5-3-5-3-xxx-3-5-3-5-3-0--3-5-5-3-5-3-xxx-3-5-3-5-3-0-|

INTRO - Part 2
Both Guitars
D|----------------------------------------------------------------|
A|----------------------------------------------------------------|
F|----------------------666---------------------------------------|
C|3-5-5-3-5-3-xxx-3-5-3-xxx-5555-8-7-5555-8-7-5555-8-7-5555---333-|
G|3-5-5-3-5-3-xxx-3-5-3-444-5555-----5555-----5555-----5555-x-333-|
C|3-5-5-3-5-3-xxx-3-5-3-----5555-----5555-----5555-----5555-x-333-|

VERSE - 2x
D|---------------------------------------------------------------------|
A|---------------------------------------------------------------------|
F|----------------------------------------32------32------32-----------|
C|------87------87------87---------------------------------------------|
G|-5555----5555----5555----5555-3333-1111----1111----1111----11113333--|
C|-5555----5555----5555----5555-3333-1111----1111----1111----11113333--|
   .... .. .... .. .... .. .... .... .... .. .... .. .... .. ........

D|---------------------------------------------------------------------|
A|---------------------------------------------------------------------|
F|----------------------------------------32------32------32-----------|
C|------87------87------87---------------------------------------------|
G|-5555----5555----5555----5555-3333-1111----1111----1111----11110000--|
C|-5555----5555----5555----5555-3333-1111----1111----1111----11110000--|
   .... .. .... .. .... .. .... .... .... .. .... .. .... .. ........

PRECHORUS
Guitar 1
D|----------------------------------------------|
A|----------------------------------------------|
F|-3------------11------3-------------11--------|
C|-x------------x-------x-------------x---------|
G|-1------------9-------1-------------9----0-3--|
C|-----------------------------------------0-3--|

Guitar 2
D|----------------------------------------------|
A|----------------------------------------------|
F|-101010----10-11----11-101010---10--11--------|
C|-x-x-x-----x--x-----x--x-x-x----x---x---------|
G|-8-8-8-----8--9-----9--8-8-8----8---9----0-3--|
C|-----------------------------------------0-3--|

CHORUS - Part 1 - 2x
Guitar 1
D|----------------------------------------------------------------|
A|------------------------------------3-------3-------3-------3---|
F|-7777--7777--7777--7777--5555-------3-------3-------3-------3---|
C|-5555--5555--5555--5555--3333--1111-1--1111-1--1111-1--1111-1---|
G|-5555--5555--5555--5555--3333--1111-1--1111-1--1111-1--1111-1---|
C|-5555--5555--5555--5555--3333--1111----1111----1111----1111-----|

Guitar 2 (timing is not matched up; just listen for it)
D|----------------------------------------------------------------|
A|----------------------------------------------------------------|
F|12------10-----12------10------3333-7--3333-7--3333-7--3333-5555|
C|x-(12x)-x-(4x)-x-(12x)-x-(3x)--xxxx-x--xxxx-x--xxxx-x--xxxx-xxxx|
G|10------8------10------8-------1111-5--1111-5--1111-5--1111-3333|
C|----------------------------------------------------------------|

CHORUS - Part 2 - 1x
Both Guitars
D|---------------------------------------|
A|---------------------------------------|
F|---------------------------------------|
C|-5555-8-7-5555-8-7-5555-8-7-5555---333-|
G|-5555-----5555-----5555-----5555-x-333-|
C|-5555-----5555-----5555-----5555-x-333-|

VERSE
PRECHORUS
CHORUS - Part 1 - 2x
then......

Guitar 1
D|-----------------------------------------|
A|-6-6-6-6-6-6-6-6-------------------------|
F|-5-5-5-5-5-5-5-5-------------------------|
C|-3-3-3-3-3-3-3-3-0000---8--7-------------|
G|-3-3-3-3-3-3-3-3-0000---8--7-------------|
C|-3-3-3-3-3-3-3-3-0000---8--7-------------|

Guitar 2
D|-----------------------------------------|
A|-----------------------------------------|
F|-101010101010101011-----15-14------------|
C|-x-x-x-x-x-x-x-x-x------x--x-------------|
G|-8-8-8-8-8-8-8-8-9------13-12------------|
C|-----------------------------------------|

INTRO - Part 2 - 2x

BRIDGE - timing between 2 guitars not exact due to space limitations.
Guitar 1
D|----------------------------------------------------------------------|
A|--------8---8--------8--8---------8--8s10s11--------------------------|
F|--------7---7--------7--7-5-------7--7s9-s10---------1212121212121212-|
C|-1----1s5---5s1----1s5--5-3-1---1s5--5s7-s8-00000000-x-x-x-x-x-x-x-x--|
G|-1----1s5---5s1----1s5--5-3-1---1s5--5s7-s8-00000000-1010101010101010-|
C|-1----1s5---5s1----1s5--5-3-1---1s5--5s7-s8-00000000------------------|

Guitar 2
D|-------------------------------------------------------------|
A|-----20-------------------20-----20-----------18-----18------|
F|17-19--19-19-19-(6x)-17-19--17-19--17-19-17-19--17-19--17-19-|
C|-------------------------------------------------------------|
G|-------------------------------------------------------------|
C|-------------------------------------------------------------|

CHORUS - Part 1 - 2x

OUTRO
Guitar 1
D|---------------------------------------------------------|
A|---------------------------------------------------------|
F|---------------------------------------------------------|
C|3-5-5-3-5-3-xxx-3-5-3-5-3-0--3-5-5-3-5-3-xxx-3-5-3-5-3-0-|
G|3-5-5-3-5-3-xxx-3-5-3-5-3-0--3-5-5-3-5-3-xxx-3-5-3-5-3-0-|
C|3-5-5-3-5-3-xxx-3-5-3-5-3-0--3-5-5-3-5-3-xxx-3-5-3-5-3-0-|

D|-----------------------------------------------------------|
A|-----------------------------------------------------------|
F|-----------------------------------------------------------|
C|3-5-5-3-5-3-xxx-3-5-3-5-3-0--3-5-5-3-5-3-xxx-3-5-3-5-3-0-1-|
G|3-5-5-3-5-3-xxx-3-5-3-5-3-0--3-5-5-3-5-3-xxx-3-5-3-5-3-0-1-|
C|3-5-5-3-5-3-xxx-3-5-3-5-3-0--3-5-5-3-5-3-xxx-3-5-3-5-3-0-1-|

Guitar 2
D|------------------------------------------|
A|------------------------------------------|
F|-12-------19191919---12--------1919191912-|
C|-x-(30x)--x-x-x-x----x--(30x)--x-x-x-x-x--|
G|-10-------17171717---10--------1717171710-|
C|------------------------------------------|
Tap to rate this tab
# A B C D E F G H I J K L M N O P Q R S T U V W X Y Z