Song name
# A B C D E F G H I J K L M N O P Q R S T U V W X Y Z

Exies - My Goddess tab

intro/chorus
e(-----------------)
b(-----------------)
g(-----------------)
d(--7-8-8-8888-3-0-)
a(--7-8-8-8888-3-0-)
D(--7-8-8-8888-3-0-)

verse
e(-----------------)
b(-----------------)
g(-----------------)
d(--88-88-11-11-99-)
a(--88-88-11-11-99-)
D(--88-88-11-11-99-)

chorus(lead)
e(-----------------)
b(-----------------)
g(--3-3-3-3333-3-3-)
d(-----------------)
a(-----------------)
D(-----------------)

second verse(lead)
e(--1-1-141---)
b(----------2-)
g(------------)
d(------------)
a(------------)
D(------------)

bridge       bridge(lead)
e(--------)(--------)
b(--------)(--------)
g(--------)(--6---8-)
d(--8---7-)(--------)
a(--8---7-)(--------)
D(--8---7-)(--------)
Tap to rate this tab
 
# A B C D E F G H I J K L M N O P Q R S T U V W X Y Z