Song name
# A B C D E F G H I J K L M N O P Q R S T U V W X Y Z

Exies - Baptise Me tab

exies
baptize_me

this is my first tab but its pretty acurate

this song is a half step tuned down, except the top string is
tunded a full step down.


intro/verse
   B     A       G    E
eb-------------------------|
Bb-------------------------|
Gb----4------2-------------|
Db---4------2-------5----2-|
Ab-2------0--------5----2--|
C#-------------3/5----2----|


chorus

 "ineed a reason"
eb-----------------------|
Bb-----------------------| carry on throgh "babtize me"
Gb-4-4-4-2-2-------------|
Db-4-4-4-2-2-5-5-5-2-2-2-|
Ab-2-2-2-0-0-5-5-5-2-2-2-|
C#-----------5-5-5-2-2-2-|


 chorus inding riff
eb---------------------------------|
Bb---------------------------------|
Gb-4-4-4-2-2-0-0-0-2-2-4-4-4-2-2-0-|let the last note ring
Db---------------------------------|
Ab---------------------------------|
C#---------------------------------|

repeat intro
chorus


eb--------------------------------------------------------------|
Bb--------------------------------------------------------------|
Gb---------------------------------------------6-6-6-7-7--7-9-2-|
Db--------------------------------------------------------------|
Ab--4h5-4h5-4-2-2-4h5-4h5-7-5-4-4h5-4h5-4-2-2--4-4-4-5-5--5-7-2-|
C#--------------------------------------------------------------|

repeat chorus
end on b
Tap to rate this tab
# A B C D E F G H I J K L M N O P Q R S T U V W X Y Z