Song name
# A B C D E F G H I J K L M N O P Q R S T U V W X Y Z

Exies - My Opinion tab

Help us improve GuitareTab! Take a short survey!
My Opinion by The Exies
Album: Head For The Door

tuning: Guitar I and II: Drop D down 1/2 step

Intro
Guitar I
e/------------------------------------------------------------------|
B/------------------------------------------------------------------|
G/------------------------------------------------------------------|
D/------------------------------------------------------------------|
A/------------------------------------------------------------------|
D/-3-0-0-3-0-0-3-5--3-0-0-3-0-0-3-5--3-0-0-3-0-0-3-5--5-5-5-6-6-7-7-|

Guitar II
No Play
Guitar I
/------------------------------------------------------------------|
/------------------------------------------------------------------|
/------------------------------------------------------------------|
/-3-0-0-3-0-0-3-5--3-0-0-3-0-0-3-5--3-0-0-3-0-0-3-5--5-5-5-6-6-7-7-|x2
/-3-0-0-3-0-0-3-5--3-0-0-3-0-0-3-5--3-0-0-3-0-0-3-5--5-5-5-6-6-7-7-|
/-3-0-0-3-0-0-3-5--3-0-0-3-0-0-3-5--3-0-0-3-0-0-3-5--5-5-5-6-6-7-7-|

Guitar II
/------------------------------------------------------------------|
/------------------------------------------------------------------|
/------------------------------------------------------------------|
/-3-0-0-3-0-0-0-0--3-0-0-3-0-0-0-0--3-0-0-3-0-0-0-0----------------|x2
/-3-0-0-3-0-0-0-0--3-0-0-3-0-0-0-0--3-0-0-3-0-0-0-0--5-5-5-6-6-7-7-|
/-3-0-0-3-0-0-0-0--3-0-0-3-0-0-0-0--3-0-0-3-0-0-0-0--5-5-5-6-6-7-7-|


verse
Guitar I
/-------------------------------------------------------------------|
/-------------------------------------------------------------------|
/-------------------------------------------------------------------|
/------7*-7*-7*-7*-7*---------7*-7*-7*-7*-7*---------7*-7*-7*-7*-7*-|
/-3-0--------------------3-0--------------------3-0-----------------|
/-3-0------------------0-3-0------------------0-3-0-----------------|

-------------|
-------------|
-------------|
-------------|
-5-5-5-6-7---|
-5-5-5-6-7-0-|

Guitar II
/-----------------------------------------------------------------|
/-----------------------------------------------------------------|
/-----------------------------------------------------------------|
/------x-x-x-x-x---------x-x-x-x-x---------x-x-x-x-x--------------|
/-3-0--x-x-x-x-x----3-0--x-x-x-x-x----3-0--x-x-x-x-x--------------|
/-3-0--x-x-x-x-x--0-3-0--x-x-x-x-x--0-3-0--x-x-x-x-x--5-5-5-6-7-0-|

Pre-chorus pt. 1
Guitar I
/---------------3---------------3---------------3--3-3-3-4-4-5-5---|
/-6-3-3-6-3-3-6---6-3-3-6-3-3-6---6-3-3-6-3-3-6------------------3-|
/------------------------------------------------------------------|
/------------------------------------------------------------------|
/------------------------------------------------------------------|
/------------------------------------------------------------------|

Guitar II
Same as Verse

Pre-chorus pt.2
Guitar I
/----------------------------------------------|
/----------------------------------------------|
/----------------------------------------------|
/----------------------------------------------|
/-5-5-5--3-3-3--2-2-2---5-5-5--3-3-3--2-2-2----|
/-5-5-5--3-3-3--2-2-2---5-5-5--3-3-3--2-2-2--0-|

Guitar II
/---------------------------------------------------------------|
/---------------------------------------------------------------|
/-7-7-7-7-7-7-7-7-7-7-7-7-7-7-7-7-7-7-7-7-7-7-7-7-7--9-9-9--7-7-|
/-x-x-x-x-x-x-x-x-x-x-x-x-x-x-x-x-x-x-x-x-x-x-x-x-x--x-x-x--x-x-|
/-5-5-5-5-5-5-5-5-5-5-5-5-5-5-5-5-5-5-5-5-5-5-5-5-5--7-7-7--5-5-|
/---------------------------------------------------------------|


Chorus
Guitar I
/---------------------------------| --------------------------------|
/---------------------------------| --------------------------------|
/-----------------5-5-5-5---------| --------------------------------|
/-0-0-0-0-3-3-3---5-5-5-5-5-5-5-5-| -3-3-3-3-3-3-3-6-6-6-6-6-6-6----|
/-0-0-0-0-3-3-3-0-3-3-3-3-5-5-5-5-| -3-3-3-3-3-3-3-6-6-6-6-6-6-6----|
/-0-0-0-0-3-3-3-0---------5-5-5-5-| -3-3-3-3-3-3-3-6-6-6-6-6-6-6--0-|

Guitar II
/---------------------------------| --------------------------------|
/---------------------------------| --------------------------------|
/-7-7-7-7--5-5-5-5--5-5-5-4-4-4-4-| -5-5-5-5-5-5-5-7-7-7-7-7-7-7----|
/-x-x-x-x--x-x-x-x--x-x-x-x-x-x-x-| -x-x-x-x-x-x-x-x-x-x-x-x-x-x----|
/-5-5-5-5--3-3-3-3--3-3-3-2-2-2-2-| -3-3-3-3-3-3-3-5-5-5-5-5-5-5----|
/---------------------------------| ------------------------------0-|


VERSE

PRECHORUS

CHORUS

Bridge
Guitar I
/-------------------|
/-------------------|
/-------------------|
/-------------------| x3 Then play the pre-chorus
/-------------------|
/-3-0-0-3-0-0-0-0-0-|

Guitar II
No Play until playing the pre-chorus.

then play
Guitar I
/---------------------------------------|
/---------------------------------------|
/-5-5-5-5-5-5-5--3-3-3-3-3-3--2-2-2-2-2-| x4
/-5-5-5-5-5-5-5--3-3-3-3-3-3--2-2-2-2-2-|
/-5-5-5-5-5-5-5--3-3-3-3-3-3--2-2-2-2-2-|

Guitar II
(in background)
/---------------------------------------------------------------------------|
/-15-----13------15----13-------15----13----15--15--15--18-18-18-20-20-20---|
/---------------------------------------------------------------------------|
/---------------------------------------------------------------------------|
/---------------------------------------------------------------------------|
/-------------------------------------------------------------------------0-|

ENDING
/-------------------|
/-------------------|
/-------------------|
/-------------------|
/-3-0-0-3-0-0-0-3-5-|
/-3-0-0-3-0-0-0-3-5-|

Enjoy punks!
Related for My Opinion tab