Song name
# A B C D E F G H I J K L M N O P Q R S T U V W X Y Z

Exies - H??y You tab

on the 7s8 part, the 7 is a grace note or in other words, it is a really fast pickup note.


|s|Slide
|h|Hammer-on
|p|Pull-off
|~|Vibrato
|b|bend
|x|muted note

Drop D

 Intro               X2
|---------------------|---------------------|
|---------------------|---------------------|
|-----7s8-7-----7s8-7-|---------------------|
|---6--------6--------|---6~~----6~~-x-x----|
|-8--------8----------|-8------8-----x-x----|
|---------------------|--------------x-x----|

Verse              X4
|--------------------|
|--------------------|
|--------------------|
|--------------------|
|-8----8----11-0-5-0-|
|-8-00-8-00-11-0-5-0-|
Pm  --   -- -- - - -

Chorus             X4
|--------------------|
|--------------------|
|--------------------|
|-8-00-8-00-11-0-5-0-|
|-8-00-8-00-11-0-5-0-|
|-8-00-8-00-11-0-5-0-|


|--------------------------------------------------------------------|
|--------------------------------------------------------------------|
|--------------------------------------------------------------------|
|-4444444444444444-6666666666666666-88888888888888888888888888888888-|
|-4444444444444444-6666666666666666-88888888888888888888888888888888-|
|-4444444444444444-6666666666666666-88888888888888888888888888888888-|

                                                            X3
|---------------------------------------|--------------------|
|---------------------------------------|--------------------|
|---------------------------------------|--------------------|
|-4444444444444444-666666666666---------|-8-00-8-00-11-0-5-0-|
|-4444444444444444-666666666666---------|-8-00-8-00-11-0-5-0-|
|-4444444444444444-666666666666---------|-8-00-8-00-11-0-5-0-|


|-------------------|
|-------------------|
|-------------------|
|-8-00-8-00-11-0-5--|
|-8-00-8-00-11-0-5--|
|-8-00-8-00-11-0-5--|

Verse
|-------------------|
|-------------------|
|-------------------|
|---6~~-x-x---6~~---|
|-8-----x-x-8-------|
|-------x-x---------|

                   X4
|--------------------|
|--------------------|
|--------------------|
|--------------------|
|-8----8----11-0-5-0-|
|-8-00-8-00-11-0-5-0-|
Pm  --   -- -- - - -

Chorus             X4
|--------------------|
|--------------------|
|--------------------|
|-8-00-8-00-11-0-5-0-|
|-8-00-8-00-11-0-5-0-|
|-8-00-8-00-11-0-5-0-|

                                                                    x2
|--------------------------------------------------------------------|
|--------------------------------------------------------------------|
|--------------------------------------------------------------------|
|-4444444444444444-6666666666666666-88888888888888888888888888888888-|
|-4444444444444444-6666666666666666-88888888888888888888888888888888-|
|-4444444444444444-6666666666666666-88888888888888888888888888888888-|

                                                            X7
|---------------------------------------|--------------------|
|---------------------------------------|--------------------|
|---------------------------------------|--------------------|
|-4444444444444444-666666666666---------|-8-00-8-00-11-0-5-0-|
|-4444444444444444-666666666666---------|-8-00-8-00-11-0-5-0-|
|-4444444444444444-666666666666---------|-8-00-8-00-11-0-5-0-|


|-------------------|
|-------------------|
|-------------------|
|-8-00-8-00-11-0-5--|
|-8-00-8-00-11-0-5--|
|-8-00-8-00-11-0-5--|

Solo
|------------------------------------------------------------|
|----------15b-------------15b-----------15b-------------15b-|
|----13-15-----15----13-15---------13-15-----15----13-15-----|
|-15--------------15------------15--------------15-----------|
|------------------------------------------------------------|
|------------------------------------------------------------|

                                       X4
|-------18-------18----------------------|
|-18h21----18h21----18h21----------------|
|-------------------------20-19-20-19-20-|
|----------------------------------------|
|----------------------------------------|
|----------------------------------------|


Rest

|---------------|
|---------------|
|---------------|
|---6~~---6~~---|
|-8-----8-------|
|---------------|

Gtr I                X2
|---------------------|
|---------------------|
|-----7s8-7-----7s8-7-|
|---6--------6--------|
|-8--------8----------|
|---------------------|

Gtr II
                  X4
|--------------------|
|--------------------|
|--------------------|
|--------------------|
|-8----8----11-0-5-0-|
|-8-00-8-00-11-0-5-0-|
Pm  --   -- -- - - -

Both
Chorus             X4
|--------------------|
|--------------------|
|--------------------|
|-8-00-8-00-11-0-5-0-|
|-8-00-8-00-11-0-5-0-|
|-8-00-8-00-11-0-5-0-|

                                                                    x2
|--------------------------------------------------------------------|
|--------------------------------------------------------------------|
|--------------------------------------------------------------------|
|-4444444444444444-6666666666666666-88888888888888888888888888888888-|
|-4444444444444444-6666666666666666-88888888888888888888888888888888-|
|-4444444444444444-6666666666666666-88888888888888888888888888888888-|

                                                            X3
|---------------------------------------|--------------------|
|---------------------------------------|--------------------|
|---------------------------------------|--------------------|
|-4444444444444444-666666666666---------|-8-00-8-00-11-0-5-0-|
|-4444444444444444-666666666666---------|-8-00-8-00-11-0-5-0-|
|-4444444444444444-666666666666---------|-8-00-8-00-11-0-5-0-|

Gtr II              X?
|--------------------|
|--------------------|
|--------------------|
|-8-00-8-00-11-0-5-0-|
|-8-00-8-00-11-0-5-0-|
|-8-00-8-00-11-0-5-0-|

Gtr I
|-----------------------------------------------------------------|
|----------15b-------------15b-----------15b-------------15-15----|
|----13-15-----15----13-15---------13-15-----15----13-15-------13-|
|-15--------------15------------15--------------15----------------|
|-----------------------------------------------------------------|
|-----------------------------------------------------------------|

The solo was from ver 2 by slamdunkmk4 so i do not take responsibility for incorrections 
the solo
Tap to rate this tab
 
# A B C D E F G H I J K L M N O P Q R S T U V W X Y Z