Song name
# A B C D E F G H I J K L M N O P Q R S T U V W X Y Z

Exies - Ugly Acoustic tab

-------------------------------------------------------------------------------
			     Ugly (Acoustic) - The Exies
-------------------------------------------------------------------------------
Tabbed by: The L3v3r

I looked all over the internet looking for correct tabs of this version of the song but
found any completely correct ones so I decided to tab it out myself.  Some credit is due
[Sean_Mac] because his tab contained some correct lead guitar parts in the chorus and 
correct lead guitar outro.  Although I've included the tempo and time signature, I am
of how to create a tab that lets the user know the beat value of the notes (quarter, 
sixteenth, etc.) so you'll just have to listen to the song to figure it out.  I tried to 
the strumming pattern that is used but it may have some flaws in it since this is my first tab.

Tuning: Db Ab Db Gb Bb eb (From Low to High)
Tempo:  83 bpm
Time Signature 4/4

Intro/Verse 1 (x5):
eb|---------------------------------------------------------------------------|
Bb|--7-7-7-7-7-7-----------10-10-10-10-10-10--5-5-5-5-------------------------|
Gb|--6-6-6-6-6-6--6-6-6-6---9--9--9--9--9--9--4-4-4-4-------------------------|
Db|--4-4-4-4-4-4--6-6-6-6---0--0--0--0--0--0--0-0-0-0-------------------------|
Ab|--4-4-4-4-4-4--4-4-4-4---0--0--0--0--0--0--0-0-0-0-------------------------|
Db|--4-4-4-4-4-4--4-4-4-4---0--0--0--0--0--0--0-0-0-0-------------------------|

Pre-Chorus 1:
eb|---------------------------------------------------------------------------|
Bb|--5-5-5-5-5-5-5-5--3-3-3-3-3-3-3-3-----------------------------------------|
Gb|--4-4-4-4-4-4-4-4--2-2-2-2-2-2-2-2-----------------------------------------|
Db|--2-2-2-2-2-2-2-2--0-0-0-0-0-0-0-0-----------------------------------------|
Ab|--2-2-2-2-2-2-2-2--0-0-0-0-0-0-0-0-----------------------------------------|
Db|--2-2-2-2-2-2-2-2--0-0-0-0-0-0-0-0-----------------------------------------|

Chorus 1 (Rhythm Guitar):
eb|---------------------------------------------------------------------------|
Bb|---------------------------------------------------------------------------|
Gb|---------------------------------------------------------------------------|
Db|--4~--7~--2~--9~--------4-4-4-4-4-4-4//7-7-7-7--2-2-2-2-2-2-2//9-9-9-9-----|
Ab|--4~--7~--2~--9~--(x2)--4-4-4-4-4-4-4//7-7-7-7--2-2-2-2-2-2-2//9-9-9-9-----|
Db|--4~--7~--2~--9~--------4-4-4-4-4-4-4//7-7-7-7--2-2-2-2-2-2-2//9-9-9-9-----|

eb|---------------------------------------------------------------------------|
Bb|---------------------------------------------------------------------------|
Gb|---------------------------------------------------------------------------|
Db|--4-4-4-4-4-4-4//7-7-7-7--12-12-12-12-12--11~------------------------------|
Ab|--4-4-4-4-4-4-4//7-7-7-7--12-12-12-12-12--11~------------------------------|
Db|--4-4-4-4-4-4-4//7-7-7-7--12-12-12-12-12--11~------------------------------|

Chorus 1 (Lead Guitar):
eb|---------------------------------------------------------------------------|
Bb|------7------------2------0-------7------------2--------0------------------|
Gb|----6---6--9----4------2-------6---6--9-----4--------2---------------------|
Db|--4-----------2---------------4------------2-------------------------------|
Ab|---------------------2-----------------------------2-----------------------|
Db|---------------------------------------------------------------------------|

eb|---------------------------------------------------------------------------|
Bb|------7-----------2-------0-------7--------------3-------------------------|
Gb|----6---6--9----4-------2-------6---6--9-------2---2---6~------------------|
Db|--4-----------2---------------4--------------0---------4~------------------|
Ab|----------------------2--------------------------------4~------------------|
Db|---------------------------------------------------------------------------|

Post-Chorus/Verse 2 (x5):
eb|---------------------------------------------------------------------------|
Bb|--7-7-7-7-7-7-----------10-10-10-10-10-10--5-5-5-5-------------------------|
Gb|--6-6-6-6-6-6--6-6-6-6---9--9--9--9--9--9--4-4-4-4-------------------------|
Db|--4-4-4-4-4-4--6-6-6-6---0--0--0--0--0--0--0-0-0-0-------------------------|
Ab|--4-4-4-4-4-4--4-4-4-4---0--0--0--0--0--0--0-0-0-0-------------------------|
Db|--4-4-4-4-4-4--4-4-4-4---0--0--0--0--0--0--0-0-0-0-------------------------|

Pre-Chorus 2:
eb|---------------------------------------------------------------------------|
Bb|--5-5-5-5-5-5-5-5--3-3-3-3-3-3-3-3-----------------------------------------|
Gb|--4-4-4-4-4-4-4-4--2-2-2-2-2-2-2-2-----------------------------------------|
Db|--2-2-2-2-2-2-2-2--0-0-0-0-0-0-0-0-----------------------------------------|
Ab|--2-2-2-2-2-2-2-2--0-0-0-0-0-0-0-0-----------------------------------------|
Db|--2-2-2-2-2-2-2-2--0-0-0-0-0-0-0-0-----------------------------------------|

Chorus 2 (Rhythm Guitar):
eb|---------------------------------------------------------------------------|
Bb|---------------------------------------------------------------------------|
Gb|---------------------------------------------------------------------------|
Db|--4~--7~--2~--9~--------4-4-4-4-4-4-4//7-7-7-7--2-2-2-2-2-2-2//9-9-9-9-----|
Ab|--4~--7~--2~--9~--(x2)--4-4-4-4-4-4-4//7-7-7-7--2-2-2-2-2-2-2//9-9-9-9-----|
Db|--4~--7~--2~--9~--------4-4-4-4-4-4-4//7-7-7-7--2-2-2-2-2-2-2//9-9-9-9-----|

eb|---------------------------------------------------------------------------|
Bb|---------------------------------------------------------------------------|
Gb|---------------------------------------------------------------------------|
Db|--4-4-4-4-4-4-4//7-7-7-7--2-2-2-2-2-2//9-9-9-9-9---------------------------|
Ab|--4-4-4-4-4-4-4//7-7-7-7--2-2-2-2-2-2//9-9-9-9-9---------------------------|
Db|--4-4-4-4-4-4-4//7-7-7-7--2-2-2-2-2-2//9-9-9-9-9---------------------------|

Chorus 2 (Lead Guitar):
eb|---------------------------------------------------------------------------|
Bb|------7-----------2---------0-------7------------2-------0-----------------|
Gb|----6---6--9----4---------2-------6---6--9-----4-------2-------------------|
Db|--4-----------2-----------------4-----------2------------------------------|
Ab|----------------------2-----------------------------2----------------------|
Db|---------------------------------------------------------------------------|

eb|---------------------------------------------------------------------------|
Bb|------7------------2-------0-------7---------------------------------------|
Gb|----6---6--9-----4-------2-------6---6--9-----4-----4-4-4-4-4--------------|
Db|--4------------2---------------4----------------4---4-4-4-4-4--------------|
Ab|----------------------2--------------------2--------2-2-2-2-2--------------|
Db|----------------------------------------2----------------------------------|

Bridge:
eb|---------------------------------------------------------------------------|
Bb|---------------------------------------------------------------------------|
Gb|---------------------------------------------------------------------------|
Db|--0-0-0-0-0-0-0-0-0-0--9-9-9-9-9-9-9-9-9--3~-------------------------------|
Ab|--0-0-0-0-0-0-0-0-0-0--9-9-9-9-9-9-9-9-9--3~--(x3)-------------------------|
Db|--0-0-0-0-0-0-0-0-0-0--9-9-9-9-9-9-9-9-9--3~-------------------------------|

eb|---------------------------------------------------------------------------|
Bb|---------------------------------------------------------------------------|
Gb|---------------------------------------------------------------------------|
Db|--0-0-0-0-0-0-0-0-0-0--2-2-2-2-2-2//11~------------------------------------|
Ab|--0-0-0-0-0-0-0-0-0-0--2-2-2-2-2-2//11~------------------------------------|
Db|--0-0-0-0-0-0-0-0-0-0--2-2-2-2-2-2//11~------------------------------------|

Pre-Chorus 3 (Rhythm Guitar):
eb|---------------------------------------------------------------------------|
Bb|--7-7-7-7-7-7-----------10-10-10-10-10-10--5-5-5-5-------------------------|
Gb|--6-6-6-6-6-6--6-6-6-6---9--9--9--9--9--9--4-4-4-4-------------------------|
Db|--4-4-4-4-4-4--6-6-6-6---0--0--0--0--0--0--0-0-0-0-------------------------|
Ab|--4-4-4-4-4-4--4-4-4-4---0--0--0--0--0--0--0-0-0-0-------------------------|
Db|--4-4-4-4-4-4--4-4-4-4---0--0--0--0--0--0--0-0-0-0-------------------------|

Pre-Chorus 3 (Lead Guitar):
eb|---------------------------------------------------------------------------|
Bb|---------------------------------------------------------------------------|
Gb|-------------------------9-6-9/11------------------------------------------|
Db|---------------------------------------------------------------------------|
Ab|---------------------------------------------------------------------------|
Db|---------------------------------------------------------------------------|

Chorus 3:
eb|---------------------------------------------------------------------------|
Bb|---------------------------------------------------------------------------|
Gb|---------------------------------------------------------------------------|
Db|--4-4--7-7--2-2-2-2-2-2//9-9-9-9-9h11--------------------------------------|
Ab|--4-4--7-7--2-2-2-2-2-2//9-9-9-9-9h11--(x3)--------------------------------|
Db|--4-4--7-7--2-2-2-2-2-2//9-9-9-9-9h11--------------------------------------|

eb|---------------------------------------------------------------------------|
Bb|---------------------------------------------------------------------------|
Gb|---------------------------------------------------------------------------|
Db|--4-4-4-4-4--7-7-7-7-7--12-12-12-12-12--11-11-11-11-11---------------------|
Ab|--4-4-4-4-4--7-7-7-7-7--12-12-12-12-12--11-11-11-11-11---------------------|
Db|--4-4-4-4-4--7-7-7-7-7--12-12-12-12-12--11-11-11-11-11---------------------|

Outro (Rhythm Guitar):
eb|---------------------------------------------------------------------------|
Bb|--7-7-7-7-7-7-----------10-10-10-10-10-10--5-5-5-5-------------------------|
Gb|--6-6-6-6-6-6--6-6-6-6---9--9--9--9--9--9--4-4-4-4-------------------------|
Db|--4-4-4-4-4-4--6-6-6-6---0--0--0--0--0--0--0-0-0-0--(x3)-------------------|
Ab|--4-4-4-4-4-4--4-4-4-4---0--0--0--0--0--0--0-0-0-0-------------------------|
Db|--4-4-4-4-4-4--4-4-4-4---0--0--0--0--0--0--0-0-0-0-------------------------|

eb|---------------------------------------------------------------------------|
Bb|--7-7-7-7-7-7-----------10~------------------------------------------------|
Gb|--6-6-6-6-6-6--6-6-6-6---9~------------------------------------------------|
Db|--4-4-4-4-4-4--6-6-6-6---0-------------------------------------------------|
Ab|--4-4-4-4-4-4--4-4-4-4---0-------------------------------------------------|
Db|--4-4-4-4-4-4--4-4-4-4---0-------------------------------------------------|

Outro (Lead Guitar):
eb|---------------------------------------------------------------------------|
Bb|------7------7---7----------------7----------------------------------------|
Gb|--6h9---9--6---9---9p6--(x3)--6h9---9--6--9~-------------------------------|
Db|---------------------------------------------------------------------------|
Ab|---------------------------------------------------------------------------|
Db|---------------------------------------------------------------------------|


| /  slide up
| \  slide down
| h  hammer-on
| p  pull-off
| ~  vibrato
| +  harmonic
| x  Mute note
===============================================================================
Tap to rate this tab
 
# A B C D E F G H I J K L M N O P Q R S T U V W X Y Z