Song name
# A B C D E F G H I J K L M N O P Q R S T U V W X Y Z

Exies - Slow Drain tab

Drop C# tuning....it's a bitch i know. But the songs worth it.

This is only the intro, main riff, verse, and chorus, the bridge and solo are 
but you get the basic idea. Just play the main riff as the
rythym for the solo.

Intro.....

e  -------------|
B  -3-3-3-3-3-4-|
G  -------------|
C# -------------|
G# -------------|
C# -------------|


Main Riff.....

e  -------------------------|
B  -------------------------|
G  -------------------------|
C# -9-9--12--9--7--4--2--0--|
G# -9-9--12--9--7--4--2--0--|
C# -9-9--12--9--7--4--2--0--|


Verse.....(Rythym)

e  --------------------|
B  --------------------|
G  --------------------|
C# -99999999--3--2--0--|
G# -99999999--3--2--0--|
C# -99999999--3--2--0--|


Chorus.....

e  ---------------------------------------|
B  ---------------------------------------|
G  ---------------------------------------|
C# -55555555--33333333--22222222-0-00-00--|
G# -55555555--33333333--22222222-0-00-00--|
C# -55555555--33333333--22222222-0-00-00--|
Tap to rate this tab
 
# A B C D E F G H I J K L M N O P Q R S T U V W X Y Z