Song name
# A B C D E F G H I J K L M N O P Q R S T U V W X Y Z

Exies - This Is The Sound tab

Help us improve GuitareTab! Take a short survey!
verse continued
d(------------------------------------------------------------)
a(------------------------------------------------------------)
f(--7-7-777777-77-7-7-777777-77-------------------------------)
c(--7-7-777777-77-7-7-777777-77-3-3-3333333-33-5-5-5555555-55-)
g(--5-5-555555-55-5-5-555555-55-3-3-3333333-33-5-5-5555555-55-)
C(------------------------------3-3-3333333-33-5-5-5555555-55-)

verse(lead) continued
d(-------------------------------------------------------------------------)
a(-------------------------------------------------------------------------)
f(-------------------------------------------------------------------------)
c(--7-7-777h8-8-8p7-7/5-3-3-333/5-5-5/3------------3/7-7-77-8-8-88-8-7-7-7-)
g(--------------------------------------7p5-3-3-33-------------------------)
C(-------------------------------------------------------------------------)

verse continued
d(------------------------------------------------------------)
a(------------------------------------------------------------)
f(--7-7-777777-77-7-7-777777-77-------------------------------)
c(--7-7-777777-77-7-7-777777-77-3-3-3333333-33-5-5-5555555-55-)
g(--5-5-555555-55-5-5-555555-55-3-3-3333333-33-5-5-5555555-55-)
C(------------------------------3-3-3333333-33-5-5-5555555-55-)

verse(lead) continued
d(-------------------------------------------------------------------------)
a(-------------------------------------------------------------------------)
f(-------------------------------------------------------------------------)
c(--7-7-777h8-8-8p7-7/5-3-3-333/5-5-5/3------------3/7-7-77-8-8-88-8-7-7-7-)
g(--------------------------------------7p5-3-3-33-------------------------)
C(-------------------------------------------------------------------------)

verse continued
d(------------------------------------------------------------)
a(------------------------------------------------------------)
f(--7-7-777777-77-7-7-777777-77-------------------------------)
c(--7-7-777777-77-7-7-777777-77-3-3-3333333-33-5-5-5555555-55-)
g(--5-5-555555-55-5-5-555555-55-3-3-3333333-33-5-5-5555555-55-)
C(------------------------------3-3-3333333-33-5-5-5555555-55-)

verse(lead) continued
d(-------------------------------------------------------------------------)
a(-------------------------------------------------------------------------)
f(-------------------------------------------------------------------------)
c(--7-7-777h8-8-8p7-7/5-3-3-333/5-5-5/3------------3/7-7-77-8-8-88-8-7-7-7-)
g(--------------------------------------7p5-3-3-33-------------------------)
C(-------------------------------------------------------------------------)

verse continued
d(-----------------------------------------------)
a(-----------------------------------------------)
f(--7-7-777777-77-7-7-777777-77----------------3-)
c(--7-7-777777-77-7-7-777777-77-3-3-3333333-33-3-)
g(--5-5-555555-55-5-5-555555-55-3-3-3333333-33-1-)
C(------------------------------3-3-3333333-33---)

verse(lead) continued
d(------------------------------------------)
a(------------------------------------------)
f(------------------------------------------)
c(--7-7-777h8-8-8p7-7/5-3-3-333/5-5-5/3-----)
g(--------------------------------------7p5-)
C(------------------------------------------)

pre-chorus 
d(----1----------1-------)
a(------1----------1-----)
f(--3-----3----3-----3---)
c(--3-------3--3-------3-)
g(--1----------1---------)
C(-----------------------)

pre-chorus continued
d(----1---------1---------)
a(------1---------1-------)
f(--3-----3---3-----------)
c(--3-------3-3----555555-)
g(--1---------1----555555-)
C(-----------------555555-)
                 pm......

chorus
d(------------------------------------------------------------)
a(------------------------------------------------------------)
f(-------------------------------3-3-333333-33-3-3------------)
c(--0-0-000000-00-3-3-333333-3-3-3-3-333333-33-3-3-3355555555-)
g(--0-0-000000-00-3-3-333333-3-3-1-1-111111-11-1-1-3355555555-)
C(--0-0-000000-00-3-3-333333-3-3-------------------3355555555-)

chorus continued
d(-------------------------------------------------)
a(-------------------------------------------------)
f(------------------------------3-3-333333-33-2-55-)
c(--0-0-000000-00-3-3-333333-33-3-3-333333-33-2-55-)
g(--0-0-000000-00-3-3-333333-33-1-1-111111-11-0-33-)
C(--0-0-000000-00-3-3-333333-33--------------------)

verse 2 
d(------------------------------------)
a(------------------------------------)
f(------------------------------------)
c(--00000p1-00-3311-00003/5-000-3h5-3-)
g(--00000p1-00-3311-00003/5-000-3h5-3-)
C(--00000p1-00-3311-00003/5-000-3h5-3-)
  pm....... .. .... ....... ... ... .

verse 2 
d(------------------------------------)
a(------------------------------------)
f(------------------------------------)
c(--00000p1-00-3311-00003/5-000-3h5-3-)
g(--00000p1-00-3311-00003/5-000-3h5-3-)
C(--00000p1-00-3311-00003/5-000-3h5-3-)
  pm....... .. .... ....... ... ... .

verse 2 
d(------------------------------------)
a(------------------------------------)
f(------------------------------------)
c(--00000p1-00-3311-00003/5-000-3h5-3-)
g(--00000p1-00-3311-00003/5-000-3h5-3-)
C(--00000p1-00-3311-00003/5-000-3h5-3-)
  pm....... .. .... ....... ... ... .

verse 2 
d(---------------------------------------)
a(---------------------------------------)
f(---------------------------------------)
c(--00000p1-00-3311-00003/5-5555-8p7-7/5-)
g(--00000p1-00-3311-00003/5-5555-8p7-7/5-)
C(--00000p1-00-3311-00003/5-5555-8p7-7/5-)
  pm....... .. .... ....... 

pre-chorus 2 and 3
d(-------------------------------)
a(-------------------------------)
f(-------------------------------)
c(--8-8-5-5-8-8-5-5-8-8-55555555-)
g(--8-8-5-5-8-8-5-5-8-8-55555555-)
C(--8-8-5-5-8-8-5-5-8-8-55555555-)
                      pm........

bridge guitar 1 x4          guitar 2
d(-----------------------)(--------)
a(-----------------------)(--------)
f(-----------------------)(--------)
c(-----------------------)(--33110-)
g(-------5p0---------5p0-)(--33110-)
C(--1111-----11-1111-----)(--33110-)
  pm.... ... .. .... ...

bridge continued x8  also outro riff
d(---------------------------)
a(---------------------------)
f(---------------------------)
c(---------------------------)
g(-------5p0-----------------)
C(--1111-----11-1111-5p0-3p0-)

brige(lead)  the last three notes are held for a while
d(----------------------------------10-)
a(------------------------------6------)
f(-------7--7--7--7/8-7/8---7----------)
c(--6----7--7--7--7/8-7/8--------------)
g(-------5--5--5--5/6-5/6--------------)
C(-------------------------------------)
Related for This Is The Sound tab