Song name
# A B C D E F G H I J K L M N O P Q R S T U V W X Y Z

Exile - Andy Micu Song tab

----------------------------------------------------------------------------
			     the andy micu song - ExIle
----------------------------------------------------------------------------
Tabbed by: andy micu
Email: loyydchristmas77@yahoo.com

Tuning: E A D G B e


Verse 1: (listen to song for rythym)
e|------------------------------------------------------|
B|------------------------------------------------------|
G|---------------------7---------9-----5----------------|
D|---------5-------7----------9--------5-----x2---------|
A|------5------5-----------7-----------3----------------|
E|---3--------------------------------------------------|
                                                  then....

e|------------------------------------------------------|
B|------------------------------------------------------|
G|--------77----99---5----------------------------------|
D|--55----77----99---5--let ring-----x2-----------------|
A|--55----55----77---3----------------------------------|
E|--33--------------------------------------------------|

   His name was andy....
e|------------------------------------------------------|
B|------------------------------------------------------|
G|--------77----99---5----------------------------------|
D|--55----77----99---5--let ring------------------------|
A|--55----55----77---3----------------------------------|
E|--33--------------------------------------------------|
                           
                          
e|-------------------------------------------|
B|-------------------------------------------|
G|---------- 77------99-----5----------------|
D|---55------77------99-----5-----x2---------|
A|---55------55------77-----3----------------|
E|---33--------------------------------------|
Tap to rate this tab
 
# A B C D E F G H I J K L M N O P Q R S T U V W X Y Z