Song name
# A B C D E F G H I J K L M N O P Q R S T U V W X Y Z

Exist - Fear tab

MAIN RIFF/CHORUS
play this riff over these chords: Am,D5,Fmaj7,G

e------------------------------------------------------|
B------------------------------------------------------|
G------------------------------------------------------|
D------------------------------------------------------|
A-0--3--5--0--7--0-h-10--12--10------------------------|
E------------------------------------------------------|


VERSE
             Am   D5               Fmaj7              G
How does it feel______? when your heart is not your own
You're trying to hold on to a love you should let go
Leave it behind you turn your back on all you know
How does it feel? When your own words have left you feeling cold

VERSE RIFF

e------------------------------------------------------|
B------------------------------------------------------|
G----------------5h7p5---------------------------------|
D----7--7--7--7--------7-------------------------------|
A-0----------------------------------------------------|
E------------------------------------------------------|
(Start this riff on the words BEHIND YOU in the verse)

BACWARDS MAIN RIFF PART

e-------------------------------------------------------|
B-------------------------------------------------------|
G-------------------------------------------------------|
D-------------------------------------------------------|
A-0--12--10--0--7--0--5--3--0---------------------------|
E-------------------------------------------------------|

www.exist.tv
Tap to rate this tab
 
# A B C D E F G H I J K L M N O P Q R S T U V W X Y Z