Exist - Mengintai Dari Tirai Kamar tab

 B/G#
E|---x---|
B|---x---|
G|---x---|
D|---9---|
A|--11---|
E|---x---|
 

Intro: F#m Bm C# F#m-E E-F#m
       F#m-G#-A-Bm-E-C#-D-Bm F#m-E E-F#m

(solo time starting)
|------------------------------------------------------------------|
|-2h3p2-0------------------------------------4-----------4---------|
|---------2-4-4\6-4-4~--/1-1-1-2-2\4---4-4h6---6~--4-4h6---6~------|
|------------------------------------------------------------------|
|------------------------------------------------------------------|
|------------------------------------------------------------------|

|-------------------------------------------------------------------------------|
|---------------5-7-9-9\10-9-7-5---5\7-9-9h10p9-7-7~--------5-7-7~--5--5-7-5h7~-|
|---------2-4-6---------------------------------------4-4h6---------------------|
|---2-4-6-----------------------------------------------------------------------|
|-------------------------------------------------------------------------------|
|-------------------------------------------------------------------------------|

             Bm        C#              F#m E-F#m
Dinginnya angin malam ini menyapa tubuhku
              Bm               C#
Namun tidak dapat dinginkan hatiku
                F#m-E-D-F#m
Yang kau hangatkan

               Bm               C#              F#m E-F#m
Terasa tercabarnya kelakian ku ini dengan sikap mu
                Bm            C#
Mentanglah aku ini insan kekurangan
                  F#m-E-F#m-E F#m
Senangnya kau mainkan

              Bm              E
        Siapalah ku ini untuk memintal buih
             A           D
        Yang memutih menjadi permaidani
             Bm                                F#m E-F#m
        Seperti mana yang tertulis dalam novel cinta

        E F#m         Bm                E
        Juga mustahil bagi ku menggapai bintang di langit
             A                     D
        Menjadikan hantaran syarat untuk milikimu
          Bm         D                C#   D-C#
        Semua itu sungguh aku tak termampu
 

chorus:
   D   E   F#m                Bm
Silap aku juga kerna jatuh cinta
         D  E                 F#m
Insan sepertimu seanggun bidadari
  D  E      F#m              Bm
Seharusnya aku cerminkan diriku
 B/G#      Bm   D       C#                   F#m-E-D-F#m
Sebelum tirai kamar aku buka untuk mengintai mu

Solo
|-------------------------------------------------------------------------------|
|---9h10p9-7-5----------------------5-7-7---9---10--9------9h10p9p7----5-7-7~~--|
|--------------6-6-6\9/4\6/4-4~---6-------5---5----------------------6----------|
|-------------------------------------------------------------------------------|
|-------------------------------------------------------------------------------|
|-------------------------------------------------------------------------------|

|-------9------12-9--------------------------------------------------------------------|
|--9------12^~------12-9---------------------------------------------------------------|
|--11^^------------------11^-11-9-11^~---11p9-11~~----11-11-6-9~-----------------------|
|----------------------------------------------------------------9/11-11\6-6/9-9\7-7~--|
|--------------------------------------------------------------------------------------|
|--------------------------------------------------------------------------------------|

|----------------------7-9-9~~--9/14-14----12---10---10^-10~--9/14---14-16-14-17^^-17~~---|
|---------------7-9-10------------------12---10----9--------------15----------------------|
|---------6-7-9---------------------------------------------------------------------------|
|---6-7-9---------------------------------------------------------------------------------|
|-9---------------------------------------------------------------------------------------|
|-----------------------------------------------------------------------------------------|


|---------14--------------------------------------------------------------------|
|------14----17p14--------------------------------------------------------------|
|--16^-------------16^-(ulang part nih 5x)-----16^-16~-14-16^-16-14-13-9-11~~---|
|-------------------------------------------------------------------------------|
|-------------------------------------------------------------------------------|
|-------------------------------------------------------------------------------|

solo:   Bm-A-G#m-F#m-E-F#m-G#m
        A-G#m-F#m-E-F#m
 
        Bm C# F#m E-D E D C#
        F#m-E-F#m E-F#m
 

solo by Manda
Tap to rate this tab
 
# A B C D E F G H I J K L M N O P Q R S T U V W X Y Z