Song name
# A B C D E F G H I J K L M N O P Q R S T U V W X Y Z

Exit Distraction - Long Way To Home tab

-------------------------------------------------------------------------------
			    IT'S A LONG WAY HOME - EXIT DISTRACTION
-------------------------------------------------------------------------------
Tabbed by:CLEARGRAND123
Email:fghj@aim.com

Tuning:Eb Ab Db Gb Bb eb 
                           Am          C           G          Em 
e|---------------------------------------------------------------------------|
B|--------------------------------1p0---------1p0----------------------------|
G|------------------------------2-----------0-------------0---------0--------|
D|------0p2-----0p2-----0p2---2-----------2-------------0---------2----------|
A|--0p2-----0p2-----0p2-----0-----------3-------------2---------2------------|
E|--------------------------------------------------3---------0--------------|

e|---------------------------------------------------------------------------|
B|--------1p0---------1p0-----------------------0----------------------------|
G|------2-----------0-------------0---------1--------------------------------|
D|----2-----------2-------------0---------2----------------------------------|
A|--0-----------3-------------2---------2-----2------------------------------|
E|--------------------------3---------0--------------------------------------|

the chords are as followed with eight down strums on each

Am [002210]

C [032010]

modified G [320030]

Em [022000]

Am [002210]

C [032010]

modified G [320030]

E [022100]


Now time for the solo

e|-------------------------------------------------------------------------------|
B|------------------------------------1p0--------1p0-----------------------------|
G|-------------5--------------------2----------0-------------0---------0---------|
D|------5-2----5--2---------------2----------2-------------0---------2-----------|
A|----3-------------0---------3-0----------3-------------2---------2-------------|
E|--5-------3---------0--3--5--------------------------3---------0---------------|


e|---------------------------------------------------------------------------|
B|---------1p0---------1p0-----------------------0---------------------------|
G|-------2-----------0-------------0---------1-------------------------------|
D|-----2-----------2-------------0---------2---------------------------------|
A|---0-----------3-------------2---------2-----2-----------------------------|
E|---------------------------3---------0-------------------------------------|

And then back to the strumming listed before ,and here is the ending

e|--------------------------------------|
B|--------------------------------------|
G|----------------10--7-----------------|
D|----------12--9-----------------------|
A|---10--13-----------------------------|
E|--------------------------------------| And the hit a c

And then your done email me with any questions  fghj@aim.com


the official band website is www.myspace.com/exitdistraction


| /  slide up
| \  slide down
| h  hammer-on
| p  pull-off
| ~  vibrato
| +  harmonic
| x  Mute note
Tap to rate this tab
# A B C D E F G H I J K L M N O P Q R S T U V W X Y Z