Song name
# A B C D E F G H I J K L M N O P Q R S T U V W X Y Z

Exit Ten - Technically Alive tab

Help us improve GuitareTab! Take a short survey!
-------------------------------------------------------------------------------
			     Technically Alive - Exit Ten
-------------------------------------------------------------------------------
Tabbed by: Chris Fletcher
Email: Topher_666@hotmail.co.uk

Tuning:DADGBE

There are so many wrong tabs of this song, So I decided to tab out what I believe to be 
perfect tab of technically alive.
The intro is all tapping, hammering on and pulling off.
Intro:
e|---------------------------------------------------------------------------|
B|---------------------------------------------------------------------------|
G|--t10p0---t10p0---t10p0----t10p0---t9p0---t9p0---t9p0---t9p0---------------|
D|-h7------h7------h7-------h7------h7-----h7-----h7-----h7-------X2---------|
A|h5------h5------h5-------h5------h5-----h5-----h5-----h5-------------------|
D|---------------------------------------------------------------------------|
Verse 1:
Guitar 1:
e|---------------------------------------------------------------------------|
B|---------------------------------------------------------------------------|
G|--t10p0---t10p0---t10p0----t10p0---t9p0---t9p0---t9p0---t9p0---------------|
D|-h7------h7------h7-------h7------h7-----h7-----h7-----h7-------X2---------|
A|h5------h5------h5-------h5------h5-----h5-----h5-----h5-------------------|
D|---------------------------------------------------------------------------|

e|---------------------------------------------------------------------------|
B|---------------------------------------------------------------------------|
G|--t14p0---t14p0---t14p0---t14p0---t12p0---t12p0---t12p0---t12p0------------|
D|-h3------h3------h3------h3------h3------h3------h3------h3------X2--------|
A|h1------h1------h1------h1------h1------h1------h1------h1-----------------|
D|---------------------------------------------------------------------------|

Guitar 2: this guitar is weird because it's difficult to hear exactly how he picks it. 
this is a rough idea to what he's doing.
e|---------------------------------------------------------------------------|
B|---------------------------------------------------------------------------|
G|---------------------------------------------------------------------------|
D|---------------------------------7/----------------------------------5/----|
A|00-00---00-00---00-00---00-00-00-5/-00-00---00-00---00-00---00-00-00-3/----|
D|00-00---00-00---00-00---00-00-00----00-00---00-00---00-00---00-00-00-------|

e|---------------------------------------------------------------------------|
B|---------------------------------------------------------------------------|
G|---------------------------------------------------------------------------|
D|----------------------------------------------------------------------10---|
A|88-88---88-88---88-88---88-88-88-7/-88-88---88-88---88-88---88-88-88--10---|
D|88-88---88-88---88-88---88-88-88-7/-88-88---88-88---88-88---88-88-88--10---|

Interlude: Guitars 1 & 2
e|------------------------------------------------------------|
B|------------------------------------------------------------|
G|------------------------------------------------------------|
D|----------------------------------------------X2------------|
A|0-0-0-0-12-12-12-12-12-12-12-12-10-10-10-10-----------------|
D|0-0-0-0-12-12-12-12-12-12-12-12-10-10-10-10-----------------|

e|------------------------------------------------------------|
B|------------------------------------------------------------|
G|------------------------------------------------------------|
D|-----------------------------------------------X2-----------|
A|0-0-0-0-8--8--8--8--8--8--8--8--7--7--7--7------------------|
D|0-0-0-0-12-12-12-12-12-12-12-12-10-10-10-10-----------------|

Verse 2: Guitars 1 & 2
e|---------------------------------------------------------------------------|
B|---------------------------------------------------------------------------|
G|---------------------------------------------------------------------------|
D|---------------------------------7/----------------------------------5/----|
A|00-00---00-00---00-00---00-00-00-5/-00-00---00-00---00-00---00-00-00-3/----|
D|00-00---00-00---00-00---00-00-00----00-00---00-00---00-00---00-00-00-------|

Guitar 1:
e|---------------------------------------------------------------------------|
B|---------------------------------------------------------------------------|
G|--t14p0---t14p0---t14p0---t14p0---t12p0---t12p0---t12p0---t12p0------------|
D|-h3------h3------h3------h3------h3------h3------h3------h3----------------|
A|h1------h1------h1------h1------h1------h1------h1------h1-----------------|
D|---------------------------------------------------------------------------|

e|---------------------------------------------------------------------------|
B|---------------------------------------------------------------------------|
G|--t14p0---t14p0---t14p0---t14p0---t15p0---t15p0---t15p0---t15p0------------|
D|-h3------h3------h3------h3------h3------h3------h3------h3----------------|
A|h1------h1------h1------h1------h1------h1------h1------h1-----------------|
D|---------------------------------------------------------------------------|
(*note the change to fret 15 when tapping ^ ^ ^ *)

Guitar 2:
e|---------------------------------------------------------------------------|
B|---------------------------------------------------------------------------|
G|---------------------------------------------------------------------------|
D|----------------------------------------------------------------------10---|
A|88-88---88-88---88-88---88-88-88-7/-88-88---88-88---88-88---88-88-88--10---|
D|88-88---88-88---88-88---88-88-88-7/-88-88---88-88---88-88---88-88-88--10---|

Pre Chorus 1:
Guitar 1:
e|---------------------------------------------------------------------------|
B|---------------------------------------------------------------------------|
G|--t10p0---t10p0---t10p0----t10p0---t9p0---t9p0---t9p0---t9p0---------------|
D|-h7------h7------h7-------h7------h7-----h7-----h7-----h7------------------|
A|h5------h5------h5-------h5------h5-----h5-----h5-----h5-------------------|
D|---------------------------------------------------------------------------|

Guitar 2:
e|------------------------------------------------------------------------------|
B|------------------------------------------------------------------------------|
G|------------------------------------------------------------------------------|
D|-8--8-----8--8-----8--8-----8--8---10>----------------------------------------|
A|-8--8-----8--8-----8--8-----8--8---8>-----------------------------------------|
D|-8--8-----8--8-----8--8-----8--8---10>----------------------------------------|

Chorus 1 A:
Guitar 1:Guitars 1 & 2
e|---------------------------------------------------------------------------|
B|---------------------------------------------------------------------------|
G|1010101010101010101010101010101010101010101010109-9-9-9-9-9-9-9------------|
D|--------------------------------------------------------------------X2-----|
A|1212121212121212121212121212121212121212121212121212121212121212-----------|
D|0-0-0-0-0-0-0-0-0-0-0-0-0-0-0-0-0-0-0-0-0-0-0-0-0-0-0-0-0-0-0-0------------|

e|---------------------------------------------------------------------------|
B|---------------------------------------------------------------------------|
G|1010101010101010101010101010101010101010101010109-9-9-9-9-9-9-9------------|
D|8-8-8-8-8-8-8-8-8-8-8-8-8-8-8-8-8-8-8-8-8-8-8-8-8-8-8-8-8-8-8-8------------|
A|1212121212121212121212121212121212121212121212127-7-7-7-7-7-7-7------------|
D|8-8-8-8-8-8-8-8-8-8-8-8-8-8-8-8-8-8-8-8-8-8-8-8-8-8-8-8-8-8-8-8------------|

e|---------------------------------------------------------------------------|
B|---------------------------------------------------------------------------|
G|1010101010101010101010101010101010101010101010101212121212121212-----------|
D|8-8-8-8-8-8-8-8-8-8-8-8-8-8-8-8-8-8-8-8-8-8-8-8-1010101010101010-----------|
A|1212121212121212121212121212121212121212121212121010101010101010-----------|
D|8-8-8-8-8-8-8-8-8-8-8-8-8-8-8-8-8-8-8-8-8-8-8-8-1010101010101010-----------|

Verse 3: This is exactly the same as Verse 2!

Pre Chorus 2: Guitars 1 & 2

e|---------------------------------------------------------------------------|
B|---------------------------------------------------------------------------|
G|-10-10----10-10----10-10----10-10--10>------10-10----10-10----10-10---10>--|
D|-8--8-----8--8-----8--8-----8--8---10>------8--8-----8--8-----8--8----8>---|
A|-8--8-----8--8-----8--8-----8--8---8>-------8--8-----8--8-----8--8----8>---|
D|-8--8-----8--8-----8--8-----8--8---8>-------8--8-----8--8-----8--8----10>--|

Chorus 2 A: Same as Chorus 1 A

Chorus 2 B:
Guitar plays Chorus 1 A again.

Guitar 2:

e|---------------------------------------------------------------------------|
B|---------------------------------------------------------------------------|
G|-14-------/12-12-12/17-17-17/19-19-----14----------12----------------------|
D|------X24-----------------------------------X24---------X8-----------------|
A|-12-------/10-10-10/15-15-15/17-17-----12----------10----------------------|
D|-0---------0--0--0--0--0--0--0--0------0-----------0-----------------------|


e|---------------------------------------------------------------------------|
B|-10-------/8--8--8-/13-13-13/15-15-----10----------11----------------------|
G|---------------------------------------------------------------------------|
D|-7----X24-/5--5--5-/10-10-10/12-12-----7----X24----8----X8-----------------|
A|---------------------------------------------------------------------------|
D|-8-------------------------------------8-----------10----------------------|

Breakdown:
I'm sorry to say that this bit has puzzled me.
I'm not sure what timing it is in, and working it out is a nightmare to say the least 
the notes are so hard to hear.
I won't post anything on here that I'm not at least 95% sure about, so if anyone has the 
way to play this, please email me!
However I have worked out the part when it comes into half time and Ryan begins Screaming:

e|---------------------------------------------------------------------------|
B|---------------------------------------------------------------------------|
G|---------------------------------------------------------------------------|
D|---------------------------------------------------------------------------|
A|---------------------------------------------------------------------------|
D|8p0-0-5p0-7p0-8p0-0-3p0-5p0-7p0-0-0-7p0-8p0-7p0-10p8p0--X4-----------------|

Breakdown Part 2:

e|-----------------------------------------------------------------------------------|
B|-----------------------------------------------------------------------------------|
G|-----------------------------------------------------------------------------------|
D|----------------------------------------7/---------------------------------5/------|
A|00-00---00-00---00-00---00-00---00-00-0-5/-00-00---00-00---00-00---00-00-0-3/------|
D|00-00---00-00---00-00---00-00---00-00-0----00-00---00-00---00-00---00-00-0---------|

Then play the intro riff, Followed by a Final Chorus, both A and B. Then End With the interlude.
Hope this is helpful and I'll post the breakdown if I can figure it out!


| /  slide up
| \  slide down
| h  hammer-on
| p  pull-off
| ~  vibrato
| +  harmonic
| x  Mute note
| >  Hold note
===============================================================================
Related for Technically Alive tab