Song name
# A B C D E F G H I J K L M N O P Q R S T U V W X Y Z

Exit Ten - Path To Take tab

*NOTE* This is updated from the incomplete tab submitted last week ;) hope you like the 
very very nearly) full version

Tuning:CGCFAD

D|-----------------------------------------------------------------|
A|-----------------------------------------------------------------|
F|-----------------------------------------------------------------|
C|-44--------------44--------------00--------------00--------------|
G|-44--------------44--------------00--------------00--------------|
C|-44--------------44--------------00--------------00--------------|
Fly                Crash and burn  Eventual fade is none of my concern
Lie                Hurt yourself   I won't degrade my soul by hating you
D|-------------------------------------------------------------|
A|-------------------------------------------------------------|
F|---6---------------6---------------7---------------6-------6-|
C|---7---------------6---------------7---------------7-------6-|
G|--4---------------4---------------0---------------0-------0--|
C|-4---------------4---------------0---------------0-------0---|


I                  will not permit influence on how I stand how I sit
Narrow             mindedness       Flippant insults thrown about in fear
D|-------------------------------------------------------------------------------------|
A|-------------------------------------------------------------------------------------|
F|-------------------------------------------------------------------------------------|
C|-4-44-44-44-44-4-4/6-66666-66-66666/77777777777777/(12)121212121212\(11)111111111111-|
G|-------------------------------------------------------------------------------------|
C|-------------------------------------------------------------------------------------|
And you and I realise that I'll be oming back and I'll be showing you what I mean
And I will be safe in this with you and I will set out a path to take
(chorus)
D|--------------------------------------------------------------------------------------|
A|--------------------------------------------------------------------------------------|
F|-6--6666----6--6-6--6--6--6666----6--6-6--6-7--7777----7--7-7--7-6--6666----6--6-6--6-|
C|-7--7777----7--7-7--7--6--6666----6--6-6--6-7--7777----7--7-7--7-7--7777----6--6-6--6-|
G|-4--4444----4--4-4--4--4--4444----4--4-4--4-0--0000----0--0-0--0-0--0000----0--0-0--0-|
C|-4--4444----4--4-4--4--4--4444----4--4-4--4-0--0000----0--0-0--0-0--0000----0--0-0--0-|

*second verse*
D|------------------------------------------------------------------------|
A|------------------------------------------------------------------------|
F|------------------------------------------------------------------------|
C|-------------------2----------------------------------2-----------------|
G|-----4---2h4p2---------4---2h4p2---------4---2h42---------4---2h4p2-----|
C|-4-4---4-------4-4---4---4-------4-4-4-4---4------4-4---4---4-------4-4-|
   . .   .       . .   .   .       . . . .   .      . .   .   .       . .
  ..graade          my       soul      soul    by       hating

D|-------------------------------------------------------------------------|
A|-------------------------------------------------------------------------|
F|-------------------------------------------------------------------------|
C|-------------------2-----------------------------------2-----------------|
G|-----4---2h4p2---------4---2h4p2---------4---2h4p2---------4---2h4p2-----|
C|-0-0---0-------0-0---0---0-------0-0-0-0---0-------0-0---0---0-------0-0-|
   . .   .       . .   .   .       . . . .   .       . .   .   .       . .
   you


THE Killer riff

D|-----------------------------------------------------------------|
A|-----------------------------------------------------------------|
F|-----------------------------------------------------------------|
C|-----------------------------------------------------------------|
G|-------0-1-4-2-1-------0-1-4-2-1-------0-1-4-2-1-------0-1-4-2-1-|
C|-0-1-3-----------0-1-3-----------0-1-3-----------0-1-3-----------|
*PALM MUTED for fly; crash burn*


I want to assure you I'm not less than 100% sure of this; if I wasn't; I wouldn't have 
it (notice the second and third lead guitar bits arn't in; if you can figure it out; 
respect; I'm aweful with figuring out tapping)
Tap to rate this tab
# A B C D E F G H I J K L M N O P Q R S T U V W X Y Z