Song name
# A B C D E F G H I J K L M N O P Q R S T U V W X Y Z

Exit Ten - Suggest A Path tab

Intro:
E--------------------------------E
B--------------------------------B
G--7----12----9----11------------G
D--------------------------------D         x 4
A--5----10----7----9-------------A
E--------------------------------E

Verse:
E------------------------------------E
B------------------------------------B
G--7----12----9----11---5------------G
D------------------------------------D     x2
A--5----10----7----9----3------------A
E------------------------------------E

E--------------------------------E
B--------------------------------B
G--7----12----9----11------------G
D--------------------------------D         x4
A--5----10----7----9-------------A
E--------------------------------E

E--------------------------------------------------E
B--------------------------------------------------B
G--7----12----9----11---5--------------------------G
D--------------------------------------------------D
A--5----10----7----9----3--------------------------A
E--------------------------------------------------E

Listen to the song and you can figure out the strumming pattern. Sorry I dont  know the 
rest - but try and figure it out. Thank You and enjoy :)
Tap to rate this tab
# A B C D E F G H I J K L M N O P Q R S T U V W X Y Z