Song name
# A B C D E F G H I J K L M N O P Q R S T U V W X Y Z

Exit Ten - Absence Of Forgiveness tab

not sure about some of it but it sounds good right to me. hope you like

Tuning: Drop C
x= Palm mute
h= Hammer on
p= Pull off

00:06
Riff 1 (Intro) x4
-------------------------------------------------------------------|
-------------------------------------------------------------------|
-----------2255------------2255------------2255------------2255----|
---33223355----33--33223355----33--33223355----33--33223355----33--|
-55--------------55--------------11--------------11----------------|
-------------------------------------------------------------------|

Riff 2 (Verse) x4
Both guitars
-----------------|
-----------------|
-----------------|
-----------------|
--0--0---0-0-0-0-|
--0--0---0-0-0-0-|
  x  x   x x x x

Guitar 1
-----------------|
-----------------|
-----5-----------|
-2-3---3-2-3-2---|
---------------3-|
-----------------|
"all that i belive they will say"
guitar 2
------------------|
------------------|
------------------|
-3333333355555555-|
-3333333355555555-|
-3333333355555555-|
 xxxxxxxxxxxxxxxx

Riff 3 x4

----------------|
----------------|
----------------|
----------------|
-0--0---0-0-0-0-|
-0--0---0-0-0-0-|
 x  x   x x x x
"but i've been sane.."

Riff 4 (Chorus) x2
--------------------------------------------------------------------|
--------------------------------------------------------------------|
--------------------------------------------------------------------|
-8--10--0------------8--10--0------------8--7--5-----------3--2--0--|
-8--10--0-----8-7h8--8--10--0-----8-7h8--8--7--5-----8-7h8-3--2--0--|
-8--10--0--000-0-----8--10--0--000-0-----8--7--5--555-5----3--2--0--|
           xxx x               xxx x              xxx x
"we've no way...."

-------------|
-------------|
-------------|
-------------|
---8-7h8-----|
000-0--------|
xxx x

Riff 1 x2

Riff 2 x4

Riff 3 x12

Riff 4 x2

Riff 5
------------------------------------------------------------------|
------------------------------------------------------------------|
------------------------------------------------------------------|
------------------------------------------------------------------|
-5555555555555555555555555555555511111111111111111111111111111111-|
------------------------------------------------------------------|
 xxxxxxxxxxxxxxxxxxxxxxxxxxxxxxxxxxxxxxxxxxxxxxxxxxxxxxxxxxxxxxxx

Riff 6
----------------|
----------------|
----------------|
-7h8p7--7h8p7-7-|
----------------|
----------------|

Riff 3 x12

Riff 4 x4

play Riff 3 once at the very end
Tap to rate this tab
 
# A B C D E F G H I J K L M N O P Q R S T U V W X Y Z