Song name
# A B C D E F G H I J K L M N O P Q R S T U V W X Y Z

Exit This Side - One Night Stand tab

I've been working on this song for a bit but i think the intro and verse are right and 
the pre-ch. anyways this is only the rythm chords the strumming is pretty easy.

INTRO
e|----------------|
B|----------------|  when switching to the 466 to 688 you have to strum a
G|5-8-3---8-------|  bit faster
D|5-8-3-6-8-------|
A|3-6-1-6-6-------| x4
E|------4---------|


VERSE
e|-------------------|
b|-------------------|
g|5-8-3-8------------| play all notes twice
d|5-8-3-8------------|
a|3-6-1-6------------|
e|-------------------| x3


PRE-CHORUS
e|----------|
b|----------|
g|5-8-3-5-8-|
d|5-8-3-5-8-|
a|3-6-1-3-6-|
e|----------|


P.S. i think the chorus is the same as the intro if you want to use this to make a tab 
has more go ahead
Tap to rate this tab
# A B C D E F G H I J K L M N O P Q R S T U V W X Y Z