Song name
# A B C D E F G H I J K L M N O P Q R S T U V W X Y Z

Exit - Act On Instinct tab

Author/Artist: Exit
Title: Act On Instinct
Transcribed by: Kris L
Email: exitofficial@hotmail.com

Played in Drop D tuning

The Order its played in :

Heavy Riff x 2
Bass Riff x 4
Heavy Riff x 2
Solo x 2
Heavy Riff x 2
Solo x 2
Last Solo
Heavy Riff x 4

--------------------------------|--------------------------------|------------
--------------------------------|--------------------------------|------------
--------------------------------|--------------------------------|------------
-3--1--4--1--3-3--1--3--1--6--9-|-3--1--4--1--3-3--1--3--1--9--6-|------------
-3--1--4--1--3-3--1--3--1--6--9-|-3--1--4--1--3-3--1--3--1--9--6-|------------
-3--1--4--1--3-3--1--3--1--6--9-|-3--1--4--1--3-3--1--3--1--9--6-|------------
                           Heavy Riff                                         

-------------------------|----------------------------------------------------
-------------------------|----------------------------------------------------
-------------------------|----------------------------------------------------
-3--1--3-----1-3-1--6--9-|----------------------------------------------------
-3--1--3-----1-3-1--6--9-|----------------------------------------------------
-3--1--3-----1-3-1--6--9-|----------------------------------------------------
         Bass Riff                                                            

------------------------------------------------------------------------------
------------------------------------------------------------------------------
---1-3-------1----------------------------------------------------------------
-3-----1-------4-3------------------------------------------------------------
----------4-------------------------------------------------------------------
------------------------------------------------------------------------------
         Solo                                                                 

------------------------|-----------------------------------------------------
------------------------|-----------------------------------------------------
---1-3----------1-------|----1-3----------------------------------------------
-3-----1---1------4-3---|--3-----1---1---643-11-3-----------------------------
---------4---4----------|----------4---4--------------------------------------
------------------------|-----------------------------------------------------
                     Last Solo                ^Thats two "1s" played quickly.
Tap to rate this tab
# A B C D E F G H I J K L M N O P Q R S T U V W X Y Z