Song name
# A B C D E F G H I J K L M N O P Q R S T U V W X Y Z

Exit - Dont Push tab

-------------------------------------------------------------------------------
			     Don't Push - The Exit
-------------------------------------------------------------------------------
Tabbed by:Ish
Email:spikeygrenade13@yahoo.com

Tuning:Standard

Verse & Chorus:
e|---1---1---1---1---2---2---2---1---|
B|---2---2---2---2---2---2---2---1---|
G|---3---3---3---3---3---3---3---2---|
D|---3---3---3---3---4---4---4---3---|
A|---1---1---1---1---4---4---4---3---|
E|---x---x---x---x---2---2---2---1---|

Bridge:
e|---1---1---1---1---2-2-2---2s-4-4--|
B|---2---2---2---1---2-2-2---2s-4-4--|
G|---3---3---3---1---3-3-3---3s-5-5--|x4
D|---3---3---3---3---4-4-4---4s-6-6--|
A|---1---1---1---3---4-4-4---4s-6-6--|
E|---x---x---x---1---2-2-2---2s-4-4--|

e|---2---2---2---2---2---2---2---2---|
B|---2---2---2---2---2---2---2---2---|
G|---3---3---3---3---2---2---2---2---|x2
D|---4---4---4---4---4---4---4---4---|
A|---4---4---4---4---4---4---4---4---|
E|---2---2---2---2---2---2---2---2---|

e|---4-4-4-4---2-2-2-2---1-1-1-1-----|
B|---4-4-4-4---2-2-2-2---2-2-2-2-----|
G|---5-5-5-5---3-3-3-3---3-3-3-3-----|x4
D|---6-6-6-6---4-4-4-4---3-3-3-3-----|
A|---6-6-6-6---4-4-4-4---1-1-1-1-----|
E|---4-4-4-4---2-2-2-2---x-x-x-x-----|

e|---2---2---2---2---2---2---2---2---|
B|---2---2---2---2---2---2---2---2---|
G|---3---3---3---3---2---2---2---2---|x2
D|---4---4---4---4---4---4---4---4---|
A|---4---4---4---4---4---4---4---4---|
E|---2---2---2---2---2---2---2---2---|

on 4th time through this last part on
that last note go right back to the
chorus

Solo:
e|--------------------------------------|
B|11-9-7-6-4-4-7-6-4-2-4-2-0---4-2-0----|
G|---------------------------3-------3-2|
D|--------------------------------------|
A|--------------------------------------|
E|--------------------------------------|

e|--------------------------------------|
B|11-9-7-6-4-4-7-6-4-2-4-2-0---4-2-0---6|
G|---------------------------3-------3--|
D|--------------------------------------|
A|--------------------------------------|
E|--------------------------------------|

Background guitar:
e|---1---1---1---1---2---2---2---1---|
B|---2---2---2---2---2---2---2---1---|
G|---3---3---3---3---3---3---3---2---|
D|---3---3---3---3---4---4---4---3---|
A|---1---1---1---1---4---4---4---3---|
E|---x---x---x---x---2---2---2---1---|

Alright so since this is my first tab i need people to tell
me the truth whether or not i should keep tabbing,so drop me
an e-mail or something and lemme know how this works for you.
Tap to rate this tab
 
# A B C D E F G H I J K L M N O P Q R S T U V W X Y Z