Song name
# A B C D E F G H I J K L M N O P Q R S T U V W X Y Z

Exitbyname - Stunt Car tab

-----------------------------------------------------------------------------
			     Stunt Car - ExitByName
Website:www.exitbyname.co.uk
-----------------------------------------------------------------------------
Tabbed by:Neotabber-V3
Email:MBooth@parkside.school.net

Tuning:Dropped B!!
				  INTRO
C#|-----------------------------------------------------------------------|
G#|-----------------------------------------------------------------------|
E |-----------------------------------------------------------------------|
B |----5h65h65h6----------------------------------------------------------|
F#|----5h65h65h6-Four times-----------------------------------------------|
B |----5h65h65h6----------------------------------------------------------|
				   FILL

C#|-----------------------------------------------------------------------|
G#|-----------------------------------------------------------------------|
E |-----------------------------------------------------------------------|
B |-----------------------------------------------------------------------|
F#|----15-12-15-12-15-12-15--14-12-14-12-14-12-14--Four times-------------|
B |-----------------------------------------------------------------------|
			"ITS A DIRTY DIRTY DIRTY SONG"

				 CHORUS
C#|-----------------------------------------------------------------------|
G#|-----------------------------------------------------------------------|
E |-----------------------------------------------------------------------|
B |---2-0-22-0-p2-0--3-0-33-0-p3-0----------------------------------------|
F#|---2-0-22-0-p2-0--3-0-33-0-p3-0----------------------------------------|
B |---2-0-22-0-p2-0--3-0-33-0-p3-0----------------------------------------|
		"WHEN YOU'VE HAD HARDCORE YOU CANT HAVE SOFTCORE "

			        INTERLUDE BIT
C#|-----------------------------------------------------------------------|
G#|-----------------------------------------------------------------------|
E |-----------------------------------------------------------------------|
B |--565656565---10101010101010---7777777---------------------------------|
F#|--565656565---10101010101010---7777777---------------------------------|
B |--565656565---10101010101010---7777777---------------------------------|

INTRO
FILL
CHORUS
INTRO(SHORTER)
FILL(DO IT 2 TIMES INSTEAD)
CHORUS
INTERLUDE BIT
CHORUS
INTRO(SHORTER)

| /  slide up
| \  slide down
| h  hammer-on
| p  pull-off
| ~  vibrato
| +  harmonic
| x  Mute note
=============================================================================
Tap to rate this tab
 
# A B C D E F G H I J K L M N O P Q R S T U V W X Y Z