Song name
# A B C D E F G H I J K L M N O P Q R S T U V W X Y Z

Exo - Baby Dont Cry tab

Intro:
F-1-0-1-1-0-1-1--1-1-0-5-3-2-1-1-0-1-1-0--1-1--1-1-0-5------5-5-5-5-10-10-8--|
D----1-----1----2---3-------------1------1----2---3--------------------------|
A--------------2-----------------------------2-------------------------------|
F----------------------------------------------------------------------------|
D----------------------------------------------------------------------------|
A----------------------------------------------------------------------------|
Verse:
F-5-5-5-5-10-10-8-1-3--1-3-5-5-5-3-3---|
D--------------------------------------|
A--------------------------------------|
F--------------------------------------|
D--------------------------------------|
A--------------------------------------|

F-5-5-5-5-10-10-8-1-3------------|
D--------------------------------|
A--------------------------------|
F--------------------------------|
D--------------------------------|
A--------------------------------|

F-1-3-5-5-5--1-3-5-6-5----------|
D-------------------------------|
A-------------------------------|
F-------------------------------|
D-------------------------------|
A-------------------------------|
Pre-chorus
F---0-0-0-0-------------0-0-0-0------------|
D--1--------1-1-------1--------1-1---3-1---|
A-2------------2-2---2--------------2------|
F------------------------------------------|
D------------------------------------------|
A------------------------------------------|

F------------------------1-3-----|
D-3-1-------1-1-1-1-1-1-3--------|
A----0-0-0-0---------------------|
F--------------------------------|
D--------------------------------|
A--------------------------------|
Chorus
F-3-1-3-5-1-1-3--1-1-1-1-3-3-------|
D---------------3-3-3-3------------|
A----------------------------------|
F----------------------------------|
D----------------------------------|
A----------------------------------|

well this is all i got for now I will upload a newly updated one as soon as possible exo 
fans~ Have fun playing this piece!

RandomStranger1~
Tap to rate this tab
# A B C D E F G H I J K L M N O P Q R S T U V W X Y Z