Song name
# A B C D E F G H I J K L M N O P Q R S T U V W X Y Z

Exodus - Like Father Like Son tab

Like Father, Like Son by Exodus
(One of their better songs off one of their better albums)

GuitarI:Eb,Ab,Db,Gb,Bb,Eb
GuitarII:Eb,Ab,Db,Gb,Bb,Eb
(Guitar I/II is just reference to melody/harmony or solo/backing)
(You only need to use the 6th-3rd string for most of the song)
(xx is to repeat as many times as needed)

[Intro]
Both Guitars                                       x7
Gb|----4-3----------3-----|:----4-3----------3-----:|
Db|----2-1----5-4---1-2101|:----2-1----5-4---1-2101:|
Ab|2-22-------3-2---------|:-----------3-2---------:|
Eb|0-00-----00------------|:0000-----00------------:|
                           x3                         x3
Gb|:-----------------------:|----------------|:-------:|
Db|:2-----------------2---2:|2---------------|:--2---2:|
Ab|:2---------------330-330:|2---------------|:330-330:|
Eb|:0---------------11--11-:|0---------------|:11--11-:|

[Verse]
GuitarI       x3 GuitarII      x3
Gb|:----------:| Gb|:----------:|
Db|:----------:| Db|:----------:|
Ab|:2-3-------:| Ab|:2---------:|
Eb|:0---3--333:| Eb|:0---------:|

Both Guitars  x9
Gb|:----------:|
Db|:--5-------:|
Ab|:2-3-5--555:|
Eb|:0---3--333:|

[Pre-Chorus]
Both Guitars
Gb|-----------------------------------------------------------------|
Db|--5--------5-5-4--444---5--------5-5-7--777---5--------5-5-4--444|
Ab|2-3-5--555-3-3-2--222-2-3-5--555-3-3-5--555-2-3-5--555-3-3-2--222|
Eb|0---3--333------------0---3--333------------0---3--333-----------|

GuitarI                           GuitarII
Gb|------------2------4---------| Gb|-------2------4--------------|
Db|-----5----2------5-----------| Db|5------0------2--------------|
Ab|2--5---3------5------7--5--3-| Ab|3--------------------7--5--3-|
Eb|---------------------5--3--1-| Eb|---------------------5--3--1-|

GuitarI                            x3
Gb|:---0-----0-----|---0-----21-0--:|
Db|:222-22222-222-2|222-22222--2--2:|
Ab|:-------------5-|-------------5-:|
Eb|:---------------|---------------:|
(I wouldn't use the other strings, I wrote it this way so it's easy to read)
GuitarII                   x3
Gb|:-----------------------:|
Db|:2-----------------2---2:|
Ab|:2---------------330-330:|
Eb|:0---------------11--11-:|

GuitarI
Gb|---0-----0-----|---0-------------------|
Db|222-22222-222-2|222-2222--2---2---2---2|
Ab|-------------5-|--------330-330-330-330|
Eb|---------------|--------11--11--11--11-|

GuitarII
Gb|-------------------------------|
Db|2-----------------2---2---2---2|
Ab|2---------------330-330-330-330|
Eb|0---------------11--11--11--11-|

[Chorus]
Both Guitars                                       x7
Gb|----4-3----------3-----|:----4-3----------3-----:|
Db|----2-1----5-4---1-2101|:----2-1----5-4---1-2101:|
Ab|2-22-------3-2---------|:-----------3-2---------:|
Eb|0-00-----00------------|:0000-----00------------:|

[1st Solo]
[Solo-Backing]
GuitarII                 xx GuitarII Both Guitars
Gb|:-----------------------:|-------|-------|
Db|:2-----------------2---2:|--2---2|--2---2|
Ab|:2---------------330-330:|330-330|330-330|
Eb|:0---------------11--11-:|11--11-|11--11-|

[Verse]

[Pre-chorus]

[Chorus]

[Pre-Bridge]
Both Guitars   x8        x2
Gb|:-----------:|:-------:|
Db|:------2---2:|:--2---2:|
Ab|:2---330-330:|:330-330:|
Eb|:0---11--11-:|:11--11-:|
                    x6                 x2
                   Eb|:---0------------:|
GuitarI            Bb|:----3101------01:|
Gb|:----------------:|:--------2---02--:|
Db|:---20---------02:|:----------------:|
Ab|:-----3202---23--:|:----------------:|
Eb|:000------000----:|:000------000----:|

GuitarII                             x2                 x4
Gb|:----------------|----------------:|:---21-----------:|
Db|:----------------|--------------02:|:-----32-------02:|
Ab|:----------------|------------23--:|:-------32---23--:|
Eb|:----------------|----------------:|:000------000----:|

[2nd Solo]
[Solo-Backing]
GuitarII            xx
Gb|:---21-----------:|
Db|:-----32-------02:|
Ab|:-------32---23--:|
Eb|:000------000----:|

[Bridge]
Both Guitars                   x6
Gb|:4--420-2--20---------------:|
Db|:------------3-------------6:|
Ab|:--------------3--320-------:|
Eb|:---------------------48748-:|
                               x4
Gb|:---------------------------:|
Db|:---------------------------:|
Ab|:2--20---------3--320-------:|
Eb|:-----3-1--111--------487480:|

[3rd Solo]
[Solo-Backing]
               xx                                                        x3
Gb|:-----------:|-------|----4-3----------3-----|:----4-3----------3-----:|
Db|:------2---2:|--2---2|----2-1----5-4---1-2101|:----2-1----5-4---1-2101:|
Ab|:2---330-330:|330-330|2-22-------3-2---------|:-----------3-2---------:|
Eb|:0---11--11-:|11--11-|0-00-----00------------|:0000-----00------------:|

[chorus]

[Outro]
                           xx
Gb|:-----------------------:|
Db|:2-----------------2---2:|
Ab|:2---------------330-330:|
Eb|:0---------------11--11-:|

Hope you like the tab. or else... and rock on guitar brutha! \m/
Tap to rate this tab
# A B C D E F G H I J K L M N O P Q R S T U V W X Y Z