Song name
# A B C D E F G H I J K L M N O P Q R S T U V W X Y Z

Exodus - Metal Command tab

Help us improve GuitareTab! Take a short survey!
intro
how many time u want
-----------------------------------------------------|
-----------------------------------------------------|
-----------------------------------------------------|
-----------------------------------------------------|
-0-0-0-0-0-0-0-0-0-0-0-0-0-0-0-0-0-0-0-0-0-0-0-0-0-0-|
-----------------------------------------------------|

main riff
---------------------------------|
---------------------------------|
---------------------------------|
---2-2--0---2-2---7--5--7---6--5-|
---0-0--0---0-0---5--3--5---4--3-|
---------------------------------|


---------------------------------------------------------|
---------------------------------------------------------|
---------------------------------------------------------|
--2------------------------------------------------------|
--0--0-0-0-0-0-0-0-0-0-0-0-0-0-0-0-0-0-0-0-0-0-0-0-0-0-0-|
---------------------------------------------------------|

-------------------------------------------------------|
-------------------------------------------------------|
-------------------------------------------------------|
-3--------------------3--------------------------------|
-1--1-1-1-1-1-1-5-----1-1-1----------------------------|
----------------3-3-3----------------------------------|


---------------------------------------------------------|
---------------------------------------------------------|
---------------------------------------------------------|
--2------------------------------------------------------|
--0--0-0-0-0-0-0-0-0-0-0-0-0-0-0-0-0-0-0-0-0-0-0-0-0-0-0-|
---------------------------------------------------------|




-----------------------------------------------------------------------|
-----------------------------------------------------------------------|
-----------------------------------------------------------------------|
--------------------------5--------------------------------------------|
--2-----------------------3-3-3-3-3-3-3-3-3-3----5---------------------|
--0--0-0-0-0-0-0-0-0-0-0-------------------------3-3-3-3-3-3-3-3-3-3-3-|

---------------------------------------|
---------------------------------------|
---------------------------------------|
--7------------------------------------|
--5--7---5---4-------------------------|
-----5---3---2-------------------------|
Related for Metal Command tab