Song name
# A B C D E F G H I J K L M N O P Q R S T U V W X Y Z

Exodus - Children Of A Worthless God tab

So I think I've got the right intro. This is tabbed until the chorus After
that, I'm stuck. I'm pretty sure it's right, though. The intro of the other
guy was missing a little something, which didn't make it sound complete.
Anyway, here's my contribution.

Also, it's one whole step down.

|-----------------------------------------------------------|
|-----------------------------------------------------------|
|-----------------------------------------------------------|
|-----------------------6-7-9-7-6---------------------------|
|-7~----5-7-8-5-7-8-7~------------8-7~----5-7-8-5-7-8-7~----|
|-----------------------------------------------------------|
|
|---------------------------------------------------------|
|---------------------------------------------------------|
|-------------------------7-9-10-10-9-7-------------------|
|-------------6-7-9-6-7-9---------------9-7-6-------------|
|-5-7-8-5-7-8---------------------------------8-7-5-7~----|
|---------------------------------------------------------| x4

|--------------------------------------------------------|
|--------------------------------------------------------|
|-10~---------10/9~----------9/7~----------7/6~----------|
|--------------------------------------------------------|
|--8~----------8/7~----------7/5~----------5/4~----------|
|--------------------------------------------------------|
|
|------------------------------------------------|
|------------------------------------------------|
|-10~---------10\12~----------12\15~----------15-|
|------------------------------------------------|
|--8~----------8\10~----------10\13~----------13-|
|------------------------------------------------|

|--------------------------------------------|
|--------------------------------------------|
|--------------------------------------------|
|--------------------------------------------|
|--------------------------------------------|
|-0-0-0-0-0-0-0-0-0-0-0-0-0-0-0-0-0-0-12\----|
| . . . . . . . . . . . . . . . . . .
|-------------------------------------------------------|
|-------------------------------------------------------|
|-------------------------------------------------------|
|-------------------------------------------------------|
|-------5--------------------------5--------------------|
|-0-6-7---6b-0-0-0-0-0-0-6-0-0-6-7---6b-0-0-0-0-0-0-0-0-|
|            . . . . . .   . .          . . . . . . . .
|-----------------------------------------------------|
|-----------------------------------------------------|
|-----------------------------------------------------|
|-----------------------------------------------------|
|-------5--------------------------5--------7-----7/9-|
|-0-6-7---6b-0-0-0-0-0-0-6-0-0-6-7---6b-0-0-5-0-0-5/7-|
             . . . . . .   . .          . .   . .

|-------------------------------------------------------|
|-------------------------------------------------------|
|-------------------------------------------------------|
|-------------------------------------------------------|
|-------5--------------------------5--------------------|
|-0-6-7---6b-0-0-0-0-0-0-6-0-0-6-7---6b-0-0-0-0-0-0-0-0-|
|            . . . . . .   . .          . . . . . . . .
|----------------------------------------------------|
|----------------------------------------------------|
|----------------------------------------------------|
|----------------------------------------------------|
|-------5--------------------------5--------------3--|
|-0-6-7---6b-0-0-0-0-0-0-6-0-0-6-7---6b-0-0-0-0-0-1--|
  .          . . . . . .   . .          . . . . .

|-----------------------------------------------------|
|-----------------------------------------------------|
|-----------------------------------------------------|
|-----------------------------------------------------|
|-----------------------------------------------------|
|-6-0-0-0-0-0-0-0-0-0-0-0-0-6-0-0-0-0-0-0-0-0-0-0-0-0-|
|   . . . . . . . . . . . .   . . . . . . . . . . . .
|-----------------------------------------------------|
|-----------------------------------------------------|
|-----------------------------------------------------|
|-----------------------------------------------------|
|---------------------------------------------5-----5-|
|-6-0-0-0-0-0-0-0-0-0-0-0-0-6-0-0-0-0-0-0-6-7---6-7---| x3
    . . . . . . . . . . . .   . . . . . . 

|-----------------------------------------------------|
|-----------------------------------------------------|
|-----------------------------------------------------|
|-----------------------------------------------------|
|-----------------------------------------------------|
|-6-0-0-0-0-0-0-0-0-0-0-0-0-6-0-0-0-0-0-0-0-0-0-0-0-0-|
|   . . . . . . . . . . . .   . . . . . . . . . . . .
|-------------------------------------------|
|-------------------------------------------|
|-------------------------------------------|
|-------------------------------------------|
|-----------------------------------------3-|
|-6-0-0-0-0-0-0-0-0-0-0-0-0-6-0-0-0-0-0-0-1-|
    . . . . . . . . . . . .   . . . . . . 

chorus
|----------|----------|----------|----------|
|----------|----------|----------|----------|
|----------|----------|----------|----------|
|----------|----------|----------|----------|
|-2~~------|-3~~------|-5~---3~--|-2~~------|
|-0~~------|-1~~------|-3~---1~--|-0~~------| x2


If you have any comments, questions and/or rants, contact me:
burrrrrrnok@hotmail.com
Tap to rate this tab
# A B C D E F G H I J K L M N O P Q R S T U V W X Y Z