Song name
# A B C D E F G H I J K L M N O P Q R S T U V W X Y Z

Exodus - Fabulous Disaster tab

song-Fabulous disaster
album-Fabulous disaster
artist-Exodus

guitar 1
|---------------------|
|---------------------|
|---------------------|
|---------------------|
|-4-4-4-4-4-4-4-4-444-|
|-2-2-5-4-3-2-2-5-430-|
                  ...

guitar 2
|---------------------------------|
|---------------------------------|
|---------------------------------|
|--------5------7-----------------|
|-4------3---33-5----7------5---4-|
|-2---22-------------5----0-3-0-2-|
      ..     ..           .   .

guitar 1
|----------------------------|
|----------------------------|
|----------------------------|
|----------------------------|
|---------4-3-2----3-6-0-3-6-|
|-22222222-2-2-2-4-----------|
  ........ . . . .

guitar 2
|----------------------------|
|----------------------------|the second guitar
|----------------------------|actually plays a
|----------------------------|harmony but i cant
|------------------3-6-0-3-6-|figure it out
|----------------4-----------|

both guitars
|----------------|
|----------------|
|----------------|
|----------6-5-4-|
|----------4-3-2-|
|-22222222-------|
  ........

both guitars
|----------------------------|
|----------------------------|
|----------------------------|
|----------------------------|
|---------4-3-2----3-6-0-3-6-|
|-22222222-2-2-2-4-----------|
  ........ . . . .

|-----|------------------------------------------------------|
|-----|------------------------------------------------------|
|-----|------------------------------------------------------|
|-----|------------------------------------------------------|
|-4-4-|---3-6-0--4-4---3-6-0--4-4---3-6-0--4-4-------------4-|
|-2-2-|-4--------2-2-4--------2-2-4--------2-2-2222222222222-|
        .            .            .            .............

verse
|-------------------------------------------------------|
|-------------------------------------------------------|
|-------------------------------------------------------|
|-------------------------------------------------------|
|-4---3-6-0--4-4---3-6-0--4-4---3-6-0--4-4--------------|
|-2-4--------2-2-4--------2-2-4--------2-2--2-2-2-2-2-2-|
    .            .            .             . . . . . . 

last time verse is played
|---------------------------------------|
|---------------------------------------|
|---------------------------------------|
|---------------------------------------|
|-4---3-6-0--4-4---3-6-0--4-4---3-6-0-2-|
|-2-4--------2-2-4--------2-2-4-------0-|
    .            .            .            

chorus
|-----------------------------------------------------|
|-----------------------------------------------------|
|-----------------------------------------------------|
|-2-2---------------------5-5---------------------7-7-|
|-0-0---------4-4---------3-3---------4-4---------5-5-|
|-----2-2-2-0-2-2-2-2-2-0-----2-2-2-0-2-2-2-2-2-0-----|
      . . . .     . . . .     . . . .     . . . . 

rest of the chorus
|-------------------------------------------------|
|-------------------------------------------------|
|-------------------------------------------------|
|-------------------------------------------------|
|---------2-2---------4-4-------------------------|
|-2-2-2-2-0-0-0-2-2-0-2-2-2-2-2-2-2-2-2-2-2-2-2-2-|
  . . . .     . . . .     . . . . . . . . . . . . 

last time chorus is played
|------------------------------------------------------------|
|------------------------------------------------------------|
|------------------------------------------------------------|
|-2-2---------------------5-5---------------------7--------2-|
|-0-0---------4-4---------3-3---------4-4---------5--------2-|
|-----2-2-2-0-2-2-2-2-2-0-----2-2-2-0-2-2-2-2-2-2-5--------0-|
      . . . .     . . . .     . . . .     . . . . 

thats all the riffs
Tap to rate this tab
 
# A B C D E F G H I J K L M N O P Q R S T U V W X Y Z