Song name
# A B C D E F G H I J K L M N O P Q R S T U V W X Y Z

Exodus - Deathamphetamine tab

Deathamphetamine guitar tab
                                                   Whole step Down
                                       Off shovel headed kill machine album
theres a few mistakes and some riffs im not sure about and sorry for the messiness its
first tab and sorry didnt do the palm mutes took to long
Legend
Slide S
hammer on H
pull off P

*pinch harmonic
Vibrato V

Bass Intro

Intro          x3
D-----------------------------------------------------------------------------|
A-----------------------------------------------------------------------------|
F-----------------------------------------------------------------------------|
C-----------------------------------------------------------------------------|
G-777---555-888-777---555-888-777---555-888-777-------------------------------|
D----00------------00-------------00------------0-0-0-0-0-0-------------------|

Final Time
D-----------------------------------------------------------|
A-----------------------------------------------------------|
F-----------------------------------------------------------|
C------------------------------------- 5-8-7----------------|
G-777----555-888-777---555-888-777-----3-6-5----------------|
D-----00-------------00------------00-----------------------|

2nd riff
D---------------------------------------------------------------------|
A---------------------------------------------------------------------|
F---------------------------------------------------------------------|
C---------------------------------------------------------------------|  x8
G---7--5--7--8--7----------- -7----5---7------------------------------|
D-0-0-0-0---0---5h7-5p0--0---0---0----5h7-5p0-3h5-3p0--------------|

Verse   x4
D------------------------------------------------------------|
A------------------------------------------------------------|
F------------------------------------------------------------|
C-6p5-5-5---6p5-5-5----------6p5-5-5- -6p5-5-5----------- ---|
G-6p5-5-5--6p5-5-5----------6p5-5-5---6p5-5-5---------------|
D----------0---------0-0-0-0---------0---------0-0-0-0-------|

D-----------------------------------------|
A-----------------------------------------|
F-----------------------------------------|
C-6p5-5-5---6p5-5-5----------6p5-5-5-- ---|
G-6p5-5-5--6p5-5-5----------6p5-5-5------|
D----------0---------0-0-0-0---------0-0--|

1st and 3rd verse ending

C-5p0-2p0-----------------|
G---------2p0-------------|
D-------------3p0---------|

2nd and 4th verse ending

C-2p0--------------------|
G-----2p0----------------|
D---------3p0 1p0--------|

Chorus
D------------------------------------|
A------------------------------------|
F------------------------------------|
C------------------------------------| x4
G-7s8-5s6-5-2------------------------|
D-5s6-3s4-3-0------------------------|

2nd riff   x4
Verse    x4
Chorus x4

Garys Solo Rhythm

D-----------------------------------------------------------------------|
A-----------------------------------------------------------------------|
F-----------------------------------------------------------------------|
C------------------------------------------5p0-2p0--------- 1st and 3rd-|
G-7p5-55-----------------------7p5-55--------------2p0------------------|  Time
D----------0-0-0-0-0-0-0-0-0--------------------------3p0---------------|
                                              x4
D---------------------------------------------------------------------------|
A---------------------------------------------------------------------------|
F-------------------------------------------------------------- 2nd and 4th-|
C------------------------------------------2p0------------------------------| time
G-7p5-55-----------------------7p5-55---------2p0---------------------------|
D----------0-0-0-0-0-0-0-0-0----------------------3p0-1p0-------------------|

D---------------------------------------------------------------------------|
A---------------------------------------------------------------------------|
F---------------------------------------------------------------------------|
C-9s7-99-------------------------9s7-99-------5p0-2p0---------  1st and 3rd-|
G-7s5-77-------------------------7s5-77----------------2p0------------------|  time
D-----------0-0-0-0-0-0-0-0-0-------------------------------3p0-------------|
                                               x4
D---------------------------------------------------------------------------|
A---------------------------------------------------------------------------|
F---------------------------------------------------------------------------|
C-9-7-99-------------------------9s7-99--------2p0--------------2nd and 4th-|
G-7s5-77-------------------------7s5-77------------2p0----------------------|     time
D-----------0-0-0-0-0-0-0-0-0---------------------------3p0-1p0-------------|


C-2p0---------------------|
G-----2p0-----------------|
D--------3p0-1p0  x4------|     right at the end of the solo

Middle section

parts of the middle might be wrong so this is just how i play it

Low part

D----------------------|
A----------------------|
F----------------------|
C----------------------| x8
G-2--- 4p3-1b----------|
D-0-0--4p3-0-----------|

High part

D------------------|
A------------------|
F------------------|
C---- 5p4-10-------|
G-7---5p4-8--------| x4
D-5-5--------------|

Low part x4


Pre solo

D----------------------------------------------------------|
A----------------------------------------------------------|
F----------------------------------------------------------|
C----------------------------------------------------------|  x2
G----------------------------------------------------------|
D-6p0-3h5-3h5-6p0-3h5-3p0-6p0-3h5-3h5-6p0-3p0--------------|

The solo is mostly the version that he played at wacken plus some small bits i just put in

Lee's solo
D-17p12-12t-15p12-12t--14p2-12t-15p12-12t---------------------------|
A-------------------------------------------------------------------|
F-------------------------------------------------------------------|
C-------------------------------------------------------------------|
G-------------------------------------------------------------------|
D-------------------------------------------------------------------|

D-17p12-12t-15p12-12t--14p2-12t-15p12-12t---------------------------|
A-------------------------------------------------------------------|
F-------------------------------------------------------------------|
C-------------------------------------------------------------------|
G-------------------------------------------------------------------|
D-------------------------------------------------------------------|

D-17p12-12t-15p12-12t--14p2-12t-15p12-12t---------------------------|
A-------------------------------------------------------------------|
F-------------------------------------------------------------------|
C-------------------------------------------------------------------|
G-------------------------------------------------------------------|
D-------------------------------------------------------------------|

D-17p1212t-15p1212t-14p212t-15p1212-17p1212t-15p1212t-14p212t-15p1212-|t
A---------------------------------------------------------------------|
F---------------------------------------------------------------------|
C---------------------------------------------------------------------|
G---------------------------------------------------------------------|
D---------------------------------------------------------------------|


D-12b-12b-15p12-11p14-10p13-9p12-8p11-7p10-6p9-s20v-----------------|
A-------------------------------------------------------------------|
F-------------------------------------------------------------------|
C-------------------------------------------------------------------|
G-------------------------------------------------------------------|
D-------------------------------------------------------------------|

D-------------------------------------------------------------------------|
A----7-8p7--7-8p7--7-8p7--7--8p7--7-10*---7-8-8s10-8h10p8-7h8p7-5h7p5-3---|v
F-s9-------9------9------9-------9------99--------------------------------|
C-------------------------------------------------------------------------|
G-------------------------------------------------------------------------|
D-------------------------------------------------------------------------|

D---------------------------------10101010-12121212-14141414-15151515-171717-|
A-5555-7777-8888-10101010-12121212-------------------------------------------|
F----------------------------------------------------------------------------|
C----------------------------------------------------------------------------|
G----------------------------------------------------------------------------|
D----------------------------------------------------------------------------|

D-17-19191919-21212121-22b---|
A----------------------------|
F----------------------------|
C----------------------------|
G----------------------------|
D----------------------------|

Solo rhythm
is the Pre solo riff

Snare roll part

D---------------------------------|
A---------------------------------|
F---------------------------------|
C---------------------------------|
G---------------------------------|
E-6p3-0000-6p3-0000-3333----------| x4

Pre solo riff x 2
snare roll      x4
pre solo riff  x2
Snare roll     x4

and then the rest is just a repeat of the verses and chorus and that stuff like that

Check my band Brutal Goat we should have a demo up in a couple of weeks 
http://www.facebook.com/home.php?#!/pages/Brutal-Goat/354870607455?ref=ts

also check out my youtube account Kianneedsalife got a cover of deathamphetamine on it
Tap to rate this tab
 
# A B C D E F G H I J K L M N O P Q R S T U V W X Y Z