Song name
# A B C D E F G H I J K L M N O P Q R S T U V W X Y Z

Exodus - Piranha tab

Riff 1 x 4
|----------------------------------------------------------------|
|----------------------------------------------------------------|
|----------------------------------------------------------------|
|----------------------------------------------------------------|
|5---6---5-5-4-5-5---6---5-5-4-5-5---6---5-5-4-5-----6-------3---|
|3-334-443-3-----3-334-443-3-----3-334-443-3-----3-334---0-001---|
 . ... ... .     . ... ... .     . ... ... .     . ..    . ..

into Riff 2:
|--------------------------------|
|--------------------------------|
|--------------------------------|
|--------------------------------|
|----6-------3-------6-------3---|
|3-334---0-001---3-334---0-001---|
 . ..    . ..    . ..    . ..

Riff 2A
|----------------------------------------------------------------|
|----------------------------------------------------------------|
|----------------------------------------------------------------| GTR I
|--------------------------------------------------------5--4----|
|----5-5-----5-------5-5-----5-------5-5-----5---5---5---3--2--6-|
|3-333-3-33333-333-333-3-33333-333-333-3-33333-333-333-33------4-|
|. ... . ..... ... ... . ..... ... ... . ..... ... ... ..
|----------------------------------------------------------------|
|----------------------------------------------------------------|
|----------------------------------------------------------------| GTR II
|--------------------------------------------------------5--4----|
|5-------------------------------------------------------3--2--6-|
|3-------------------------------------------------------------4-|
 .

|----------------------------------------------------------------|
|----------------------------------------------------------------|
|----------------------------------------------------------------| GTR I
|--------------------------------------------------------5--4----|
|----5-5-----5-------5-5-----5-------5-5-----5---5---5---3--2--6-|
|3-333-3-33333-333-333-3-33333-333-333-3-33333-333-333-33------4-|
|. ... . ..... ... ... . ..... ... ... . ..... ... ... ..
|----------------------------------------------------------------|
|----------------------------------------------------------------|
|----------------------------------------------------------------| GTR II
|--------------------------------------------------------5--4----|
|5---------------5---------------5-----------------------3--2--6-|
|3---------------3---------------3-----------------------------4-|
 .               .               .


Riff 2B x 2
|----------------------------------------------------------------|
|----------------------------------------------------------------|
|----------------------------------------------------------------|
|--------------------------------------------------------5--4----|
|----5-5-----5-------5-5-----5-------5-5-----5---5---5---------6-|
|3-333-3-33333-333-333-3-33333-333-333-3-33333-333-333-33--------|
 . ... . ..... ... ... . ..... ... ... . ..... ... ... ..

Riff 2A x 4
|----------------------------------------------------------------|
|----------------------------------------------------------------|
|----------------------------------------------------------------|
|--------------------------------------------------------5--4----|
|----5-5-----5-------5-5-----5-------5-5-----5---5---5---3--2--6-|
|3-333-3-33333-333-333-3-33333-333-333-3-33333-333-333-33------4-|
 . ... . ..... ... ... . ..... ... ... . ..... ... ... ..

Riff 3 x 4
|--------------------------------|
|--------------------------------|
|--------------------------------|
|------------------------5--4----|
|----6-------3---5---5---3--2--6-|
|3-334---0-001---3-333-33------4-|
 . ..    . ..    . ... ..

Riff 2B x 2
|----------------------------------------------------------------|
|----------------------------------------------------------------|
|----------------------------------------------------------------|
|--------------------------------------------------------5--4----|
|----5-5-----5-------5-5-----5-------5-5-----5---5---5---------6-|
|3-333-3-33333-333-333-3-33333-333-333-3-33333-333-333-33--------|
 . ... . ..... ... ... . ..... ... ... . ..... ... ... ..


Riff 2A x 4
|----------------------------------------------------------------|
|----------------------------------------------------------------|
|----------------------------------------------------------------|
|--------------------------------------------------------5--4----|
|----5-5-----5-------5-5-----5-------5-5-----5---5---5---3--2--6-|
|3-333-3-33333-333-333-3-33333-333-333-3-33333-333-333-33------4-|
 . ... . ..... ... ... . ..... ... ... . ..... ... ... ..

Riff 3 x 4
|--------------------------------|
|--------------------------------|
|--------------------------------|
|------------------------5--4----|
|----6-------3---5---5---3--2--6-|
|3-334---0-001---3-333-33------4-|
 . ..    . ..    . ... ..

into solo:
|--------------------------------|
|----------------1-------0-------|
|--------3--2----1-------0-------|
|5--4----1--0--4-----------------|
|3--2--6-------2-----------------|
|------4-------------------------|

Riff 1 x 4 under Gary's solo
|----------------------------------------------------------------|
|----------------------------------------------------------------|
|----------------------------------------------------------------|
|----------------------------------------------------------------|
|5---6---5-5-4-5-5---6---5-5-4-5-5---6---5-5-4-5-----6-------3---|
|3-334-443-3-----3-334-443-3-----3-334-443-3-----3-334---0-001---|
 . ... ... .     . ... ... .     . ... ... .     . ..    . ..

Riff 4 x 4 under Rick's solo
|----------------------------------------------------------------|
|----------------------------------------------------------------|
|--------------------------------------------------------7-6-----|
|--------------9-7-------------5-7-9-------------9-7-----5-4-7-5-|
|--------------7-5-------------3-5-7-------------7-5---------5-3-|
|0-000-000-000-----000-000-000-------000-000-000-----000---------|
 . ... ... ...     ... ... ...       ... ... ...     ...

After solo
|----------------------------------------------------------------|
|----------------------------------------------------------------|
|----------------------------------------------------------------|
|4-------------------------------4-------------------------------|
|2-------------------------------2-------------------------------|
|--------0-000-000-000-000-000-00--------0-000-000-000-000-000-00|
         . ... ... ... ... ... ..        . ... ... ... ... ... ..
|----------------------------------------------------------------|
|----------------------------------------------------------------|
|----------------------------------------------------------------|
|4---------------4---------------3-------------------------------|
|2---------------2---------------1-------2-2-2-2-2-2-2-2-2-2-2-2-|
|--------0-000-00--------0-000-00--------0-0-0-0-0-0-0-0-0-0-0-0-|
         . ... ..        . ... ..        . . . . . . . . . . . .

|------------------------------------------------------------------------|
|--------------------------------------------------------1-------0-------|
|------------------------------------------------3--2----1-------0-------|
|4-------4-4-4-4-4-4-4-4-4-4-4-4-5--4----5--4----1--0--4-----------------|
|2-------2-2-2-2-2-2-2-2-2-2-2-2-3--2--6-3--2--6-------2-----------------|
|--------------------------------------4-------4-------------------------|
         . . . . . . . . . . . .

Riff 1 x 4
|----------------------------------------------------------------|
|----------------------------------------------------------------|
|----------------------------------------------------------------|
|----------------------------------------------------------------|
|5---6---5-5-4-5-5---6---5-5-4-5-5---6---5-5-4-5-----6-------3---|
|3-334-443-3-----3-334-443-3-----3-334-443-3-----3-334---0-001---|
 . ... ... .     . ... ... .     . ... ... .     . ..    . ..

end
|------------------------------------|
|------------------------------------|
|------------------------------------|
|------------------------------------|
|----6-------3-------6-------3---5---|
|3-334---0-001---3-334---0-001---3---|
 . ..    . ..    . ..    . ..    .
Tap to rate this tab
# A B C D E F G H I J K L M N O P Q R S T U V W X Y Z