Song name
# A B C D E F G H I J K L M N O P Q R S T U V W X Y Z

Exodus - Strike Of The Beast tab

Riff 1A
|----------------------------------------------------------------|
|----------------------------------------------------------------|
|-----p---p---pp------p---p--pp-------p---p---pp------p---p--AH--| gtr 1
|----32--52--852-----32--52-852------32--52--852-----32--52--7^--|
|----------------------------------------------------------------|
|000---0---0-----000---0---0-----000---0---0-----000---0---0-----|
|...   .   .     ...   .   .     ...   .   .     ...   .   .
|----------------------------------------------------------------|
|----------------------------------------------------------------|
|----------------------------------------------------------------| gtr 2
|------------------------------------------------------------7---|
|------------------------------------------------------------5---|
|----------------------------------------------------------------|


|----------------------------------------------------------------|
|----------------------------------------------------------------|
|-----p---p---pp------p---p--pp-------p---p---pp------p---p------| gtr 1
|----32--52--852-----32--52-852------32--52--852-----32--52------|
|------------------------------------------------------------5---|
|000---0---0-----000---0---0-----000---0---0-----000---0---0-3---|
|...   .   .     ...   .   .     ...   .   .     ...   .   .
|----------------------------------------------------------------|
|----------------------------------------------------------------|
|----------------------------------------------------------------| gtr 2
|2---------------2---------------2---------------2---------------|
|2---------------2---------------2---------------2------------5--|
|0---------------0---------------0---------------0------------3--|

Fill 1
|--------------------------------|
|--------------------------------|
|--------------------------------|
|--------------------------------|
|(5)-----------------------5-4-3-|
|(3)-----------------------3-2-1-|
|

Riff 1A

Riff 2A
|----------------------------------------------------------------|
|----------------------------------------------------------------|
|----------------------------------------------------------------|
|----------------------------------------------------------------|
|------------------------3--2--3-------------------------5--4--3-|
|1111111111111111111111111--0--1-1111111111111111111111113--2--1-|
|........................|--3--| ........................|--3--|

Riff 1B
|----------------------------------------------------------------|
|----------------------------------------------------------------|
|-----p---p---pp------p---p--pp-------p---p---pp------p---p---pp-|
|----32--52--852-----32--52-852------32--52--852-----32--52--852-|
|----------------------------------------------------------------|
|000---0---0-----000---0---0-----000---0---0-----000---0---0-----|
|...   .   .     ...   .   .     ...   .   .     ...   .   .

Riff 2B
|----------------------------------------------------------------|
|----------------------------------------------------------------|
|------------------------5--4--5-------------------------7--6--5-|
|3333333333333333333333333--2--3-3333333333333333333333335--4--3-|
|----------------------------------------------------------------|
|----------------------------------------------------------------|
|........................|--3--| ........................|--3--|

Riff 1B

Riff 3
|----------------------------------------------------------------|
|----------------------------------------------------------------|
|----------------------------------------------------------------|
|7------------10-9-------------7-5-------------4-5--5--5-5--5--7-|
|5-------------8-7-------------5-3-------------2-3--3--3-3--3--5-|
|----------------------------------------------------------------|
|                                                |--3--| |--3--|

Riff 1A
Riff 2A
Riff 1B
Riff 2B
Riff 1B
Riff 3

Fill 2
|----------------------------------------------------------------|
|----------------------------------------------------------------|
|----------------------------------------------------------------|
|5--5--5-5--5--7-5--5--5-5--5--7-5-------------------------------|
|3--3--3-3--3--5-3--3--3-3--3--5-3-------------------------------|
|----------------------------------------------------------------|
||--3--| |--3--| |--3--| |--3--|


Riff 4 x 4
|----------------------------------------------------------------|
|----------------------------------------------------------------|
|----------------------------------------------------------------|
|----8-7-----7-5---------------------1-0-------------------------|
|000-----000-----0000000000000000000-----000-1-0-----------------|
|------------------------------------------------3333333333333333|
|...     ...     ...................     ...     ................


Riff 5 x 4
|----------------------------------------------------------------|
|----------------------------------------------------------------|
|----------------------------------------------------------------|
|----------------------------------------------------------------|
|0000000000000000000000000000000000000000000-1-0-----------------|
|------------------------------------------------3333333333333333|
|...........................................     ................


Riff 6
|----------------------------------------------------------------|
|----------------------------------------------------------------|
|----------------------------------------------------------------|
|----------------------------------------------------------------|
|----------------------------------------------------------------|
|1111111111111111111111111111111111111111111111111111111111111111|
|................................................................

|----------------------------------------------------------------|
|----------------------------------------------------------------|
|----------------------------------------------------------------|
|4-----------4-4-4-----------4-4-4-----------4-4-4-----------4-4-|
|2-----------2-2-2-----------2-2-2-----------2-2-2-----------2-2-|
|----------------------------------------------------------------|

|----------------------------------------------------------------|
|----------------------------------------------------------------|
|----------------------------------------------------------------|
|3333333333333333333333333333333333333333333333333333333333333333|
|----------------------------------------------------------------|
|----------------------------------------------------------------|
 ................................................................

|----------------------------------------------------------------|
|----------------------------------------------------------------|
|----------------------------------------------------------------|
|4-----------4-4-4-----------4-4-4-----------4-4-----------------|
|2-----------2-2-2-----------2-2-2-----------2-2-5---6---7---8---|
|------------------------------------------------3---4---5---6---|

Riff 7
|----------------------------------------------------------------|
|----------------------------------------------------------------|
|----------------------------------------------------------------|
|------------------------------------------------4---5-4---5-4-5-|
|2222222222225-4-----------------2222222222225-4-2---3-2---3-2-3-|
|----------------1111111111111111--------------------------------|
|............    ............................

Fill 3
|----------------|
|----------------|
|----------------|
|2---------------|
|2---------------|
|0---------------|


Riff 1C
|----------------------------------------------------------------|
|----------------------------------------------------------------|
|----------------------------------------------------------------|
|----------------------------------------------------------------|
|----------------------------------------------------------------|
|000-100-300-630-000-100-300-630-000-100-300-630-000-100-300-630-|
|...  ..  ..     ...  ..  ..     ...  ..  ..     ...  ..  ..

Riff 2A
Riff 1C
Riff 3
Riff 1B
Riff 3
Fill 2

Fill 4
|----------------------------------------------------------------|
|----------------------------------------------------------------|
|----------------------------------------------------------------|
|2---2---2---2---2---2---2---2---2---------------------------2---|
|2---2---2---2---2---2---2---2---2---------------------------2---|
|0---0---0---0---0---0---0---0---0---------------------------0---|
Tap to rate this tab
 
# A B C D E F G H I J K L M N O P Q R S T U V W X Y Z