Song name
# A B C D E F G H I J K L M N O P Q R S T U V W X Y Z

Exodus - War Is My Shepherd tab

War is my Shepherd - Exodus

I don't know the two solos, sorry guys.

Guitar 1 - Gary Holts
Guitar 2 - Rick Hunolt

Tuning (Low to High) D G C F A D

Intro 1 - Gtr 1
D ---------------------||
A ---------------------||
F ---------------------||
C ---------------------||
G -7-6---5---7-----5-2-||
D -----0---0-5-0-0-3-0-||
       .   .   . .

Intro 1 - Gtr 2
D ---------------------||
A ---------------------||
F ---------------------||
C ---------------------||
G -----------7-----5-2-||
D ---------0-5-0-0-3-0-||
           .   . .

Intro 2 - Gtr 1
D -------------------------------------------------------------------------|
A -------------------------------------------------------------------------|
F -------------------------------------------------------------------------|
C -------------------------------------------------------------------------|
G -8-------7-------6-------5-------8-------7-------5h6---------5h6-8-------|
D ---0-0-0---0-0-0---0-0-0---0-0-0---0-0-0---0-0-0-----0-0-5h6-------0-0-0-|
     . . .   . . .   . . .   . . .   . . .   . . .     . .           . . .

D -----------------------------------------------------------||
A -----------------------------------------------------------||
F -----------------------------------------------------------||
C -----------------------------------------------------------||
G -7-------6-------5-------8-------7-------5h6-6-6-6-5h6-----||
D ---0-0-0---0-0-0---0-0-0---0-0-0---0-0-0---------------5h6-||
     . . .   . . .   . . .   . . .   . . .

Intro 2 - Gtr 2
D ---------------------------------------------||
A ---------------------------------------------||
F ---------------------------------------------||
C ---------------------------------------------||
G -2-2-2-2-2-2-2-2-2-2-2-2-2-2-2-2-2-2-2-2-2-2-||
D -0-0-0-0-0-0-0-0-0-0-0-0-0-0-0-0-0-0-0-0-0-0-||
   . . . . . . . . . . . . . . . . . . . . . .

Verse - Both Gtrs
D -------------------------------------------------------------------------|
A -------------------------------------------------------------------------|
F -------------------------------------------------------------------------|
C -------------------------------------------------------------------------|
G -8-------7-------6-------5-------8-------7-------5h6---------5h6-8-------|
D ---0-0-0---0-0-0---0-0-0---0-0-0---0-0-0---0-0-0-----0-0-5h6-------0-0-0-|
     . . .   . . .   . . .   . . .   . . .   . . .     . .           . . .

D -----------------------------------------------------------||
A -----------------------------------------------------------||
F -----------------------------------------------------------||
C -----------------------------------------------------------||
G -7-------6-------5-------8-------7-------5h6-6-6-6-5h6-----||
D ---0-0-0---0-0-0---0-0-0---0-0-0---0-0-0---------------5h6-||
     . . .   . . .   . . .   . . .   . . .

Interlude 1
D ------------------||
A ------------------||
F ------------------||
C -10/9-------------||
G --8/7--10/9---7/6-||
D ------0-8/7-0-5/4-||
        .     .

Pre-Chorus - Both Gtrs
D --------------------------------------------------------------------------|
A --------------------------------------------------------------------------|
F --------------------------------------------------------------------------|
C ----------------------------5-----7-----9---------------------------------|
G -8---------5--7-------------3-----5-----7-------------8---------5--7------|
D ---0-0-5h6------0-0-0-0-0-0---3/5---5/7---0-0-0-0-0-0---0-0-5h6------0-0--|
     . .          . . . . . .               . . . . . .   . .          . .

D --------------------------------------------------------------------------|
A --------------------------------------------------------------------------|
F --------------------------------------------------------------------------|
C ---------5-----7----------------------------------------------5-----7-----|
G ---------3-----5-0h2-2-------------8---------5--7-------------3-----5-----|
D -0-0-0-0---3/5-------0-0-0-0-0-0-0---0-0-5h6------0-0-0-0-0-0---3/5---5/7-|
   . . . .               . . . . . .   . .          . . . . . .

D ------------------------------------------------||
A ------------------------------------------------||
F ------------------------------------------------||
C -9----------------------------------------5---7-||
G -7-------------8---------5--7-------------3---5-||
D ---0-0-0-0-0-0---0-0-5h6------0-0-0-0-0-0-3---5-||
     . . . . . .   . .          . . . . . .

Chorus - Both Gtrs
D ---------------------||
A ---------------------||
F ---------------------||
C ---------------------||
G -7-6---5---7-----5-2-||
D -----0---0-5-0-0-3-0-||
       .   .   . .

Interlude 2
D -------------------------------||
A -------------------------------||
F -------------------------------||
C -------------------------------||
G -------------------------3h5h7-||
D -1h4-0-0-2h5-0-0-3h5-0-0-------||
       . .     . .     . .

Pre-Solo - Gtr 1
D ----------------|---------------------||
A ----------------|---------------------||
F ----------------|---------------------||
C ----------------|---------------------||
G -6-----5----5h7-|-3h6p3p0-------------||
D ---0-0---0-0----|---------3h6p3p0-3h5-||
     . .   . .

Pre-Solo - Gtr 2
D --------------------------------------------------------||
A --------------------------------------------------------||
F --------------------------------------------------------||
C --------------------------------------------------------||
G -3h6p3p0-------------2----2----2----3h6p3p0-------------||
D ---------3h6p3p0-3h5-0----0----0------------3h6p3p0-3h5-||

Bridge 1 - Gtr 1
D -------------------------------------------------------------||
A -------------------------------------------------------------||
F -------------------------------------------------------------||
C -------------------------------------------------------------||
G -8-------8---7-------8---7-8-7-5-7---5---8---7-----7-8-7-5---||
D ---0-0-0---0---0-0-0---0-----------0---0---0---0-0---------6-||
     . . .   .   . . .   .           .   .   .   . .

Bridge 1 - Gtr 2
D -------------------------------------------------------------||
A -------------------------------------------------------------||
F -------------------------------------------------------------||
C -------------------------------------------------------------||
G -8-------8---7-------8---7-8-7-5-7---5---8---7-----4-5-4-2---||
D ---0-0-0---0---0-0-0---0-----------0---0---0---0-0---------2-||
     . . .   .   . . .   .           .   .   .   . .

Bridge 2 Pt. 1 - Gtr 1
D ---------------------------------------------------------------||
A ---------------------------------------------------------------||
F ---------------------------------------------------------------||
C ---------------------------------6---3---7---6---6---3---7---6-||
G -7---5---8---7---7---5---8---7---------------------------------||
D ---0---0---0---0---0---0---0---0---0---0---0---0---0---0---0---||
     .   .   .   .   .   .   .   .   .   .   .   .   .   .   .

Bridge 2 Pt. 1 - Gtr 2
D ---------------------------------------------------------------||
A ---------------------------------------------------------------||
F ---------------------------------------------------------------||
C ---------------------------------------------------------------||
G -7---5---8---7---7---5---8---7---7---5---8---7---7---5---8---7-||
D ---0---0---0---0---0---0---0---0---0---0---0---0---0---0---0---||
     .   .   .   .   .   .   .   .   .   .   .   .   .   .   .

Bridge 2 Pt. 2 - Both Gtrs
D -------------------------------------------------------||
A -------------------------------------------------------||
F -------------------------------------------------------||
C -9---7--10---9---9---7--10---9--9--9-10--9--9--7-10--9-||
G -7---5---8---7---7---5---8---7--7--5--8--7--7--5--8--7-||
D ---0---0---0---0---0---0---0----7--5--8--7--7--5--8--7-||
     .   .   .   .   .   .   .

Outro 1
D ---------------------||
A ---------------------||
F ---------------------||
C ---------------------||
G -7-6---5---7-----5-2-||
D -0-0-0-0-0-5-0-0-3-0-||
       .   .   . .

Outro 2
D --------------------------------||
A --------------------------------||
F --------------------------------||
C ------------------------10--7-9-||
G -------------------------8--5-7-||
D -0h3-0-0-1h4-0-0-2h5-0-0-8--5-7-||
       . .     . .     . .
Tap to rate this tab
 
# A B C D E F G H I J K L M N O P Q R S T U V W X Y Z