Song name
# A B C D E F G H I J K L M N O P Q R S T U V W X Y Z

Exodus - Metal Command tab

Song: Metal Command
Artist: Exodus
Album: Bonded by Blood
Guitars: Rick Hunolt and Gary Holt


Intro:

Play fast, 8x
E|-----------------|
B|-----------------|
G|-----------------|
D|-----------------|
A|-0-0-0-0-0-0-0-0-|
E|-----------------|

Riff 1:

Play 4x

E|---------------------------------------------------|
B|---------------------------------------------------|
G|---------------------------------------------------|
D|-------------6-5-6-5----------------6-5------------|
A|--7-7-5-7-7--4-3-4-3----5-7-7-5-7-7-4-3-7-7-7-7-7--|
E|--5-5-3-5-5-------------3-5-5-3-5-5-----5-5-5-5-5--|

Riff 2:

Play 4x

E|---------------------------------------------|
B|---------------------------------------------|
G|---------------------------------------------|
D|---------------------------------------------|
A|-7-7-7-7-7-7-7-7-8-8-8-5-5-5-8-7-7-7-7-7-7-8-|
E|-5-5-5-5-5-5-5-5-6-6-6-3-3-3-6-5-5-5-5-5-5-6-|

´You´re gathered here tonight
To heed our metal cry...´

Riff 3:

Play 1x

´Fists are in the air. banging everywhere...´
E|---------------------------------------------------------------|
B|---------------------------------------------------------------|
G|---------------------------------------------------------------|
D|-----------------5-5-5-5-5-5-5-5-----------------7-7-7-7-------|
A|-2-2-2-2-2-2-2-2-3-3-3-3-3-3-3-3-5-5-5-5-5-5-5-5-5-5-5-5-7-5-5-|
E|-0-0-0-0-0-0-0-0-----------------3-3-3-3-3-3-3-3---------5-3-3-|

E|-------------------------------------------------------------------------|
B|-------------------------------------------------------------------------|
G|-------------------------------------------------------------------------|
D|-----------------5-5-5-5-5-5-5-5------------------7-5-5-7-5-5-7-5-5-7-5-5|
A|-2-2-2-2-2-2-2-2-3-3-3-3-3-3-3-3-5-5-5-5-5-5-5-5--5-3-3-5-3-3-5-3-3-5-3-3|
E|-0-0-0-0-0-0-0-0-----------------3-3-3-3-3-3-3-3-------------------------|

Riff 1 2x
Riff 2 4x
Riff 3 1x


Play this during the solo for rhythm guitar:
Riff 1 4x
Riff 3 1x
Intro 1x


Riff 1 4x
Riff 2 4x
Riff 3 1x

Outro:

Speel 1x

E|-------------------------------------------|
B|-------------------------------------------|
G|-------------------------------------------|
D|--------------5----7-----------------------|
A|----7----5----3----5--Drum-Fill--7----9----|
E|----5----3-----------------------5----7----|
Tap to rate this tab
# A B C D E F G H I J K L M N O P Q R S T U V W X Y Z