Song name
# A B C D E F G H I J K L M N O P Q R S T U V W X Y Z

Exodus - Deathamphetamine tab

Exodus - Deathamphetamine from Shovel Headed kill machine

Tuning 1 step down: DGCFAD

Intro Riff:

D||------------------------------|-----------------------------|
A||------------------------------|-----------------------------|
F||------------------------------|-----------------------------|
C||------------------------------|-----------------------------|
G||---7-7-7--------5-5-5--8-8-8--|--7-7-7--------5-5-5--8-8-8--|
D||----------0--0----------------|---------0--0----------------|


D||-----------------------------|----------------------------||
A||-----------------------------|----------------------------||
F||-----------------------------|---------------------------*||
C||-----------------------------|---------------------------*||
G||--7-7-7--------5-5-5--8-8-8--|--7-7-7---------------------|| Play 3 times
D||---------0--0----------------|---------0--0--0--0--0--0---||


D||-----------------|
A||-----------------|
F||-----------------|
C||--5----8----7----|
A||--3----6----5----|
D||-----------------|


|-------------------------------------|-------------------------------------|
|-------------------------------------|-------------------------------------|
|-------------------------------------|-------------------------------------|
|-------------------------------------|-------------------------------------|
|-------7---5---7---8---7-------------|------7---5---7----------------------|
|-----0---0---0---0---0----5h-7p-5p-0-|----0---0---0----5h-7p-5--3h-5p-3p-0-|

Chorus Riff:

D||------------------------||
A||------------------------||
F||------------------------||
C||------------------------||
G||--7s8---5s6--5--2-------||
D||--5s6---3s4--3--0-------||


Tablature Legend:
----------------
s - slide
h - hammer on
p - pull off


Tap to rate this tab
 
# A B C D E F G H I J K L M N O P Q R S T U V W X Y Z