Song name
# A B C D E F G H I J K L M N O P Q R S T U V W X Y Z

Expatriate - Spaces Bewteen tab

Arist: Expatriate
Song: Spaces Between
Album: In The Midst Of This
Tabbed By: Ben Gillan


This awsome song is on Rugby 08 and the intro is fairly simple. Enjoy.

1|--3-3-3-3-3-3-3------------------------------------------------
2|--4-4-4-4-4-4-4/11-11-11-11-11-11-11-11-11-11-11-11-11-11-11-11
3|--5-5-5-5-5-5-5/12-12-12-12-12-12-12-12-12/13-13-13-13-13-13-13
4|--5-5-5-5-5-5-5/12-12-12-12-12-12-12-12-12/13-13-13-13-13-13-13
5|----------------10-10-10-10-10-10-10-10-10/11-11-11-11-11-11-11
6|---------------------------------------------------------------

1|---------------------------------------------------------------|
2|--\-9--9--9--9--9--8--8--8-------------------------------------|
3|--\10-10-10-10-10-10-10-10-------------------------------------|
4|--\10-10-10-10-10-10-10-10-------------------------------------|
5|--\-8--8--8--8--8--8--8--8-------------------------------------|
6|---------------------------------------------------------------|


Thats the intro and the verse. Sorry I didn't get the other stuff, I'm working on it.
Tap to rate this tab
# A B C D E F G H I J K L M N O P Q R S T U V W X Y Z