Song name
# A B C D E F G H I J K L M N O P Q R S T U V W X Y Z

Expatriate - Spaces Between tab

http://www.expatriateband.com/

Verse and intro:

Guitar 1:

e|---3-------10--------------------------------------------------------------|
B|---4-------11--------------------------------------------------------------|
G|---5-------12----------------5---------------------------------------------|
D|---5(x8)---12-------13-------6---------------------------------------------|
A|-----------10(x8)---11(x8)---8(x8)-----------------------------------------|
E|---------------------------------------------------------------------------|


Guitar 2:

e|---------------------------------------------------------------------------------|
B|--------11------------------------------------11-13------------------------------|
G|-----------------12--------13-------12--------------10-12--------12-13--------12-|
D|--10-13----10-13-----10-13----10-13-----10-13--------------10-13--------10-13----|
A|---------------------------------------------------------------------------------|
E|---------------------------------------------------------------------------------|


Keyboards(0:56)

e|---------------------------------------------------------------------------|
B|---------------------------------------------------------------------------|
G|----5-5-3-5----------------------------------------------------------------|
D|-------------5-5-3-5--6(x8)--8-6-5-3---------------------------------------|
A|---------------------------------------------------------------------------|
E|---------------------------------------------------------------------------|


Bridge:

Guitar 1:

e|---------------------------------------------------------------------------|
B|------12-------------------------------------------------------------------|
G|--10------10-8--10--12-13-12-10--------------------------------------------|
D|---------------------------------------------------------------------------|
A|---------------------------------------------------------------------------|
E|---------------------------------------------------------------------------|

Guitar 2:

e|---------------------------------------------------------------------------|
B|---------------------------------------------------------------------------|
G|---------------------------------------------------------------------------|
D|---------------------------------------------------------------------------|
A|---6------8------3------6-------8-----3------------------------------------|
E|---4(x16)-6(x8)--1(x8)--4(x16)--6(x8)-1(x8)--------------------------------|



Tap to rate this tab
# A B C D E F G H I J K L M N O P Q R S T U V W X Y Z