Song name
# A B C D E F G H I J K L M N O P Q R S T U V W X Y Z

Exploding Hearts - Sleeping Aides And Razorblades tab

-------------------------------------------------------------------------------
			     SLEEPING AIDES AND RAZORBLADES - Exploding Hearts
-------------------------------------------------------------------------------
Tabbed by: Frayne Arias
Email: fromashesrise@live.com

Tuning: EADGBE

Intro
Guitar 1
e|---------------------------------------------------------------------------|
B|---------------------------------------------------------------------------|
G|-11-9-9-11-11-11-9-9-11-11-11-9-9-11-11-11-9-9-11--------------------------|
D|-9--9-9-9--9--9--9-9-9--9--9--9-9-9--9--9--9-9-9---------------------------|
A|---------------------------------------------------------------------------|
E|---------------------------------------------------------------------------|

Guitar 2
e|---------------------------------------------------------------------------|
B|-4-5-4-4-5-7-5-4-5-4-4-5-7-5-4-5-4-4-5-7-5-4-5-4-5-2-2-4-0-----------------|
G|---------------------------------------------------------------------------|
D|---------------------------------------------------------------------------|
A|---------------------------------------------------------------------------|
E|---------------------------------------------------------------------------|

Verse
Guitar 1
e|---------------------------------------------------------------------------|
B|---------------------------------------------------------------------------|
G|-4-4-4-4-4-----------6-6-6-6-6---------4-4---------------------------------|
D|-4-4-4-4-4-6-6-6-6-6-6-6-6-6-6-4-4-6-6-4-4-6-6-----------------------------|
A|-2-2-2-2-2-6-6-6-6-6-4-4-4-4-4-4-4-6-6-2-2-6-6-----------------------------|
E|-----------4-4-4-4-4-----------2-2-4-4-----4-4-----------------------------|

Chorus
Guitar 1
e|---------------------------------------------------------------------------|
B|---------------------------------------------------------------------------|
G|-4-4-4-3-3-3---------------------------------------------------------------|
D|-4-4-4-3-3-3-6-6-6-2-------------------------------------------------------|
A|-2-2-2-1-1-1-6-6-6-2-------------------------------------------------------|
E|-------------4-4-4-0-------------------------------------------------------|

Guitar 2
e|-7-7h9p7-7-7h9p7-7-7h9p7-4-0-----------------------------------------------|
B|---------------------------------------------------------------------------|
G|---------------------------------------------------------------------------|
D|---------------------------------------------------------------------------|
A|---------------------------------------------------------------------------|
E|---------------------------------------------------------------------------|

Bridge
Guitar 1
e|---------------------------------------------------------------------------|
B|---------------------------------------------------------------------------|
G|---------------------------------------------------------------------------|
D|-4-4-4-4-4-4-4-4-4-4-4-4------2-2-2-2-2-2-2-2-6-4-6-4----------------------|
A|-4-4-4-4-4-4-4-4-4-4-4-4--X1--2-2-2-2-2-2-2-2-6-4-6-4--X2------------------|
E|-2-2-2-2-2-2-2-2-2-2-2-2------0-0-0-0-0-0-0-0-4-2-4-2----------------------|

e|---------------------------------------------------------------------------|
B|-/9------------------------------------------------------------------------|
G|----11-9-8-11-8------------------------------------------------------------|
D|---------------------------------------------------------------------------|
A|---------------------------------------------------------------------------|
E|---------------------------------------------------------------------------|

Bridge 2
Guitar 1
e|-11-11----11----9-9---9----------------------------------------------------|
B|---------------------------X3----------------------------------------------|
G|-------11----11-----9---9--------------------------------------------------|
D|---------------------------------------------------------------------------|
A|---------------------------------------------------------------------------|
E|---------------------------------------------------------------------------|

e|---------------------------------------------------------------------------|
B|---------------------------------------------------------------------------|
G|---------------------------------------------------------------------------|
D|-2-2-2-2-2-2-4-4-4-4-4-4-4-------------------------------------------------|
A|-2-2-2-2-2-2-4-4-4-4-4-4-4--X2---------------------------------------------|
E|-0-0-0-0-0-0-2-2-2-2-2-2-2-------------------------------------------------|

Outro
Guitar 1
e|---------------------------------------------------------------------------|
B|---------------------------------------------------------------------------|
G|-------------------------4-------------------------------------------------|
D|-4-4-4-4-4-4-4-4-4-4-4-4-4-------------------------------------------------|
A|-4-4-4-4-4-4-4-4-4-4-4-4-2-------------------------------------------------|
E|-2-2-2-2-2-2-2-2-2-2-2-2---------------------------------------------------|



| /  slide up
| \  slide down
| h  hammer-on
| p  pull-off
| ~  vibrato
| +  harmonic
| x  Mute note
===============================================================================

http://www.explodinghearts.com/
Tap to rate this tab
# A B C D E F G H I J K L M N O P Q R S T U V W X Y Z