Song name
# A B C D E F G H I J K L M N O P Q R S T U V W X Y Z

Exploited - I Never Changed tab

----------------------------------------------------------------------------
			     I NEVER CHANGED - The Exploited
----------------------------------------------------------------------------


Intro/Verse:

e|----------------------------------------------------|
B|----------------------------------------------------|
G|-----------44-4-------------------------------------|
D|-77-5-22-2-44-4-55-5---------------------------------|
A|-77-5-22-2-22-2-55-5---------------------------------|
E|-55-3-00-0------33-3---------------------------------|
    

Chorus:

e|----------------------------------------------------|
B|----------------------------------------------------|
G|----------------------------------------------------|
D|-99-9--12-12-12--14-14-14--5-7----------------------|   
A|-99-9--12-12-10--14-14-14--5-7----------------------|
E|-77-7--10-10-10--12-12-12--3-5----------------------|
    

"Solo":
e|------------------------------------------------------7777777777777---| 
B|-12--17~----12--8~---12--17~----12--8~---88888888888888888888888888---|
G|----------------------------------------------------------------------|
D|----------------------------------------------------------------------|
A|----------------------------------------------------------------------|
E|----------------------------------------------------------------------|

Do the last solo bit many times. Just listen to the song to figure out the speed.

============================================================================
Tap to rate this tab
# A B C D E F G H I J K L M N O P Q R S T U V W X Y Z