Song name
# A B C D E F G H I J K L M N O P Q R S T U V W X Y Z

Exploited - Law For The Rich tab

Law For The Rich By: The Exploited.

Intro/verse:
   A                                         Bb C
E|--------------------------------------------------|
B|--------------------------------------------------|
G|-2-------------------------3-2--------------------|
D|-2-------------------------2-2-------------3--5-5-|
A|-0-0-0-0-0-0-0-0-0-0-0-0-0-----0-0-0-0-0-0-1--3-3-|
E|--------------------------------------------------|
     . . . . . . . . . . . .     . . . . . .
Chorus:
   E           G           Bb          E
E|---------------------------------------|
B|---------------------------------------|
G|---------------------------------------|
D|-------------------------3-3-----------|
A|-2-2---------5-5---------1-1-1-1-1-1-2-|
E|-0-0-0-0-0-0-3-3-3-3-3-3-------------0-|
       . . . .     . . . .     . . . .

Play the verse riff under the solos.

By:themechanix100
Tap to rate this tab
# A B C D E F G H I J K L M N O P Q R S T U V W X Y Z