Song name
# A B C D E F G H I J K L M N O P Q R S T U V W X Y Z

Exploited - Alternative tab

Help us improve GuitareTab! Take a short survey!
I've seen it in MANY places as:
|---------------------------------|
|---------------------------------|
|-4-4-4-4---------7-7-7-7---------|
|-4-4-4-4-5-5-5-5-7-7-7-7-7-7-7-7-|
|-2-2-2-2-5-5-5-5-5-5-5-5-7-7-7-7-|
|---------3-3-3-3---------5-5--5--|


but it just doesn't sound right.


I believe the right way is:
verse/chorus:
|---------------------------------|
|---------------------------------|
|---------------------------------|
|---8888--4444--11111111--6666----|
|---6666--2222---9-9-9-9--4444----|
|---------------------------------|
Related for Alternative tab