Guitaretab - guitar tabs
Song name
# A B C D E F G H I J K L M N O P Q R S T U V W X Y Z

Exploited - Dog Of War tab

This song is well good :D


Verse.

-|---------------------------|
-|---------------------------|
-|---------------------------|
-|----5-5-----------7-7------|
-|9-9-7-7-9-9-5-5-5-5-5-7-7--|
-|7-7-----7-7-3-3-3-----5-5--|

Chorus.
[ Tab from: http://www.guitaretab.com/e/exploited/38505.html ]
-|----------------------------------|
-|----------------------------------|
-|----------------------------------|
-|----9-9-9-------------------------|
-|9-9-7-7-7-9-9-5-5-5-5-5-7-7-7-7-7-|
-|7-7-------7-7-3-3-3-3-3-5-5-5-5-5-|

Simplicity.
Related for Dog Of War tab
Advertisement will be closed in 10 seconds