Song name
# A B C D E F G H I J K L M N O P Q R S T U V W X Y Z

Exploited - Daily News tab

-------------------------------------------------------------------------------
		daily news- exploited
-------------------------------------------------------------------------------
Tabbed by:punkaschuck
Email:cmbaker27Hotmail.com

Tuning:E

e|--------------------------------------------------------------------------------------|
B|--------------------------------------------------------------------------------------|
G|--------------------------------------------------------------------------------------|
D|------9------9----9-------p-10--p-9-----7---------------------------------------------|
A|-----7------7----7-------p-10--p-9----7-----------------------------------------------|
E|--xx------xx----0-------------------------repeat--------------------------------------|

e|--------------------------------------------------------------------------|
B|--------------------------------------------------------------------------|
G|--------------------------------------------------------------------------|
D|--------------------------------x5--5-/----4-------4-----4--------4-------|
A|----9--9---7---7------5------x3---3/----2-------2------2-------2----------|
E|---7--7--5----5-----3-----------------------xx------xx-----xx-----repeat--|
Tap to rate this tab
# A B C D E F G H I J K L M N O P Q R S T U V W X Y Z