Song name
# A B C D E F G H I J K L M N O P Q R S T U V W X Y Z

Exploited - Sick Bastard tab

Drop D tunning (DADGBe)

Main Riff
e|-------------------------------------------------------|
B|-------------------------------------------------------|
G|-------------------------------------------------------|
D|-2--2-2-3-2-2-3-2-2-3-2-2-5-3--3-3-5-3-3-5-3-3-5-3-3-5-|
A|-2--2-2-3-2-2-3-2-2-3-2-2-5-3--3-3-5-3-3-5-3-3-5-3-3-5-|
D|-2--2-2-3-2-2-3-2-2-3-2-2-5-3--3-3-5-3-3-5-3-3-5-3-3-5-|

e|---------------------------------------------------|
B|---------------------------------------------------|
G|---------------------------------------------------|
D|-2--2-2-3-2-2-3-2-2-3-2-2-5-3--3-3-5-3-3-5-3-3-7-7-|
A|-2--2-2-3-2-2-3-2-2-3-2-2-5-3--3-3-5-3-3-5-3-3-7-7-|
D|-2--2-2-3-2-2-3-2-2-3-2-2-5-3--3-3-5-3-3-5-3-3-7-7-|


Verse

e|-----------------------------------------|
B|-----------------------------------------|
G|-----------------------------------------|
D|-2---3---2--3--2—-00/2---3---2--3--2—-00-|
A|-2---3---2--3--2—-00/2---3---2--3--2—-00-|
D|-2---3---2--3--2—-00/2---3---2--3--2—-00-|
                    ..                  ..

Chorus

e|----------------------------------------|
B|----------------------------------------|
G|----------------------------------------|
D|-2--2-2-3-0—-2/3-2/3-2--2-2-3-0--3/2/0--|
A|-2--2-2-3-0—-2/3-2/3-2--2-2-3-0--3/2/0--|
D|-2--2-2-3-0—-2/3-2/3-2--2-2-3-0--3/2/0--|


Solos

I didn’t figure the original solos, but I use to play this stuff (over the verse 
it sounds good enough. Also, it’s a punk song so... Do It Yourself, add your fantasy and... 
mercy on me when rating the tab (and if you have the original solo, plz. send it to me!)


e|-7h0h7h0/7/7h0/7--8h0h8h0/8/8h0/8—-5/5h0/5-8/8h0/8-7h0h7h0/7/7h0/7--|
B|--------------------------------------------------------------------|
G|--------------------------------------------------------------------|
D|--------------------------------------------------------------------|
A|--------------------------------------------------------------------|
D|--------------------------------------------------------------------|

...adding this…

e|-7-7-7-7-7-8-8-8-8-8—7/5-5-5-5-5/8-8-8-7-7-7-7--|
B|-7-7-7-7-7-8-8-8-8-8—7/5-5-5-5-5/8-8-8-7-7-7-7--|
G|------------------------------------------------|
D|------------------------------------------------|
A|------------------------------------------------|
D|------------------------------------------------|

…and a bit of this

e|-12-12-12-12-12--13-13-13-13-13--10-10-10/13-13-13/12---------------|
B|--------------------------------------------------------------------|
G|--------------------------------------------------------------------|
D|--------------------------------------------------------------------|
A|--------------------------------------------------------------------|
D|--------------------------------------------------------------------|

Hope it helps. Enjoy!

. - palm mute
h - hammer on
/ - slide
Tap to rate this tab
 
# A B C D E F G H I J K L M N O P Q R S T U V W X Y Z