Song name
# A B C D E F G H I J K L M N O P Q R S T U V W X Y Z

Exploited - Mods tab

Help us improve GuitareTab! Take a short survey!
THE EXPLOITED - The Mods(1980-Army Life)
tabbed by DeV!8eR


intro:
e|--------------------------------------------------------------------|
B|--------------------------------------------------------------------|
G|--------------------------------------------------------------------|
D|-7-7-7---7-7-7---7-10------7---8-8-8---8-8-7-7--7-7-------7----10---|
A|----------------------8-10--------------------------10-10---10------|
E|--------------------------------------------------------------------|

e|-----------------------------------------------------------------|
B|-----------------------------------------------------------------|
G|-----------------------------------------------------------------|
D|-7-7-7---7-7-7---7-10------7---8-8-8---8-8-7-7--7-10-10-8--------|
A|----------------------8-10--------------------------------10-8---|
E|-----------------------------------------------------------------|

verse1:
e|------------------|
B|------------------|
G|-6666666666666666-|
D|-6666666666666666-|
A|-4444444444444444-|
E|------------------|

verse2:
e|------------------------------------|
B|------------------------------------|
G|-6666666666666666-7~~~6~~~4-4-4-2---|
D|-6666666666666666-7~~~6~~~4-4-4-2-4-|
A|-4444444444444444-5~~~4~~~2-2-2-0-4-|
E|----------------------------------2-|

The Mods:

Oi! oi! oi!

Fuck a mod
Fuck a mod
Fuck a mod today
How much fun
It is to fuck
A mod until he's dead

Kick 'em in the head
Beat 'em in the balls
Jump up on his head
How much fun
It is to fuck
A mod until he's dead

Kick a mod
Kick a mod
Kick a mod today
How much fun
It is to kick
A mod until he's dead

Kick 'em in the head
Beat 'em in the balls
Jump up on his head
How much fun
It is to fuck
A mod until he's dead

Yeah!

Kill a mod
Kill a mod
Kiil a mod today
How much fun
It is to fuck
A mod until he's dead

Kick 'em in the head
Beat 'em in the balls
Jump up on his head
How much fun
It is to fuck
A mod until he's dead

Fuck a mod
Fuck a mod
Fuck a mod today
How much fun
It is to fuck
A mod until he's dead

Kick 'em in the head
Beat 'em in the balls
Jump up on his head
How much fun
It is to fuck
A mod until he's dead

fuckin' wankers!
Related for Mods tab