Guitaretab - guitar tabs
Song name
# A B C D E F G H I J K L M N O P Q R S T U V W X Y Z

Exploited - Spg tab

-##
From: EJBST20@vms.cis.pitt.edu
Date: Thu, 19 Oct 1995 15:01:45 -0400 (EDT)



SPG by the Exploited
Appears on many different records "totally exploited" among them

riff one:
e-------------------------------
B-------------------------------
G-------------------------------
D----------------------------777
A-77-77777--9-10-9--555-555--555
E-55-55555--7- 8-7--333-333-----

(rhythm may be off a bit)


riff two:
e-------------------------------
B-------------------------------
G-------------------------------
D-7-7--------77-7---------------
A-5-5--5555--55-5-5555--55-7----
E------3333-------3333--33-5----


eric bolton
ejbst20@vms.cis.pit.edu
[ Tab from: http://www.guitaretab.com/e/exploited/6235.html ]
Related for Spg tab