Song name
# A B C D E F G H I J K L M N O P Q R S T U V W X Y Z

Exploited - Fuck The Usa tab

Tuning:(Eb)

Intro:X2
|---------------------------------------------|
|---------------------------------------------|
|---------------------------------------------|
|------------66--55--88------66--5------------|
|--------88--44--33--66--88--44--3(hold)------|
|--12\6--66--------------66-------------------|

  X2
|---------------------------------------------|
|---------------------------------------------|
|---------------------------------------------|
|------6666-5555---------------6666-555555----|
|-8888-4444-3333-6666-----8888-4444-333333----|
|-6666-----------4444-----6666----------------|

  X4
|--------------------------|
|--------------------------|
|--------------------------|
|------6666-5555-----------|
|-8888-4444-3333-6666------|
|-6666-----------4444------|

  Verse
|--------------------------|
|--------------------------|
|--------------------------|
|------6666-6666-5-6-5-----|
|-8888-8888-4444-3-4-3-----|
|-6666---------------------|

End With This
|---------|
|---------|
|---------|
|---------|
|--6------|
|--4------|
Tap to rate this tab
# A B C D E F G H I J K L M N O P Q R S T U V W X Y Z