Song name
# A B C D E F G H I J K L M N O P Q R S T U V W X Y Z

Exploited - Uk 82 tab

------------------------------- Guitar Tabs -------------------------------


Bands: The Exploited - Song: UK 82 - Album: Troops of tomorrow 

 Intro                   3 x                               2x
E---------------------------------|----------------------------|
B---------------------------------|----------------------------|
G-5-------------------------------|----------------------------|
D-5-7-7-7-7-7-7-7-5-7-7-7-7-7-7-7-|7-10-10-10-10-10-10-10-10-7-|
A-0-0-0-0-0-0-0-0-0-0-0-0-0-0-0-0-|0--0--0--0--0--0--0--0--0-0-|
E---------------------------------|----------------------------|

Verse 1 
E[-----------------------------------------------------------|
B[-----------------------------------------------------------|
G[-----------------------------------------------------------|
D[-5-5-5-555-5-5-5-555---------------------------------------|
A[-3-3-3-333-3-3-3-333-7-7-7-\5-7-7-7-/10-7-7-7-\5-7-7-7-/9--|
E[---------------------5-5-5-\3-5-5-5-/8--5-5-5-\3-5-5-5-/7--|Rpt 2 X

 Verse 2
E[-----------------------------------------------------------|
B[-----------------------------------------------------------|
G[-----------------------------------------------------------|
D[-----------------------------------------------------------|
A[-3333333333333333333-7-7-7-\5-7-7-7-/10-7-7-7-\5-7-7-7-/9--|
E[---------------------5-5-5-\3-5-5-5-/8--5-5-5-\3-5-5-5-/7--|
 [--------PM--------]

 Last time
E[---------------------------------------------------|
B[---------------------------------------------------|
G[---------------------------------------------------|
D[---------------------------------------------------|
A[-3333333333333333333-7-7-\5-7-7-/10-7-7-\5-7-7--5--|
E[---------------------5-5-\3-5-5-/8--5-5-\3-5-5--3--|
 [--------PM--------]
 

E------------------------------------------|
B------------------------------------------|
G-2-------(2)------4-------(4)----------2--|
D-3-------(3)------5-------(5)----------5--|
A-3-------(3)------5-------(5)----------5--|
E-1-------(1)------3-------(3)----------3--|

 Repeat Intro
 Repeat Verse 1 and 2

Backing for guitar solo
E--------------------------------------------------------|
B--------------------------------------------------------|
G--------------------------------------------------------|
D--------------------------------------------------------|
A----------------------5-5-5-\3/5-5-5-/8-5-5-\3/5-5-5-/7-|
E-66666666666666666666-3-3-3\-1/3-3-3-/6-3-3-\1/3-3-3-/5-| Repeat 4 X
  [--------PM--------]


           UK82 Lyric:

At first those brothers tried to pass away this land 
now this is on the edge of town 
and all run down 

UK 82 

making love in her flat 
doesnt say you got class 
you dont feel but you know its wrong 
so are they americans 

UK 82 

my guess is that you are so under stress 
well i really know fuckin best 
some of them play around 
whats wrong with russian lads 

UK 82 

just throw the body on the scale 
you play the game but its real 
why dont you find out where she lives 
go dressed in your best youl still be taxed 

UK 82 


----------------------------------------------------------------------------

Tap to rate this tab
 
# A B C D E F G H I J K L M N O P Q R S T U V W X Y Z