Song name
# A B C D E F G H I J K L M N O P Q R S T U V W X Y Z

Exploited - Mucky Pup tab

Help us improve GuitareTab! Take a short survey!
Ok.
First, bass.

-|--------------------------------|
-|--------------------------------|
-|------------------------5-5-5-5-|
-|----------------5-5-5-5-3-3-3-3-|
-|7-7-7-7-5-5-5-5-3-3-3-3---------|
-|5-5-5-5-3-3-3-3-----------------|

I mean come on, thats well easy.

In the verse.

-|---------------------------------------|
-|---------------------------------------|
-|----------------------------5----------|
-|---------------5------------3----------|
-|7------5-------3-----------------------|
-|5------3-------------------------------|


then this again

-|--------------------------------|
-|--------------------------------|
-|------------------------5-5-5-5-|
-|----------------5-5-5-5-3-3-3-3-|
-|7-7-7-7-5-5-5-5-3-3-3-3---------|
-|5-5-5-5-3-3-3-3-----------------|


Solo. "Fuck Banjo!"

-|------------------------------------------------------------------------|
-|------------------------------------------------------------------------|
-|3p3p3p3p35p5p5p5p5p57p7p7p7p7p7p9p9p9p9p9p12bp14b12p14p12p14p12p14p12p15b
-|------------------------------------------------------------------------|
-|------------------------------------------------------------------------|
-|------------------------------------------------------------------------|

WELL easy. :)
Related for Mucky Pup tab