Song name
# A B C D E F G H I J K L M N O P Q R S T U V W X Y Z

Exploited - The Massacre tab

This is the main riff
-|---------------------------------------------|
-|---------------------------------------------|
-|---------------------------------------------|
-|--------------------3-3-3-5-5-5-5------------|
-|7-7-7-7-7-7-7-7-7-7-5-5-5-7-7-7-77-7-7-7-7-7-|
-|5-5-5-5-5-5-5-5-5-5--------------5-5-5-5-5-5-|


Then a solo

-|5-5-5-5-5-5-5-5-5p6-5-5-5p6-5p6-5-5-5p7-5p7-5p8-5p7p8-5-5-5p7-5p7-5p7p8-|
-|------------------------------------------------------------------------|
-|------------------------------------------------------------------------|
-|------------------------------------------------------------------------|
-|------------------------------------------------------------------------|
-|------------------------------------------------------------------------|

-|5-5p7-5p7p8-7/1-|
-|------------7/1-|
-|------------7/1-|
-|------------7/1-|
-|------------7/1-|
-|------------7/1-|

Then carry on the earlier riff as normal

then another solo

-|---------------------------------------------------------------------------|
-|12-12-12-12-12-12-12-12-12-12-12-12p13p12p14p12p13p14p13p12p13p14p12p13p14-|
-|---------------------------------------------------------------------------|
-|---------------------------------------------------------------------------|
-|---------------------------------------------------------------------------|
-|---------------------------------------------------------------------------|

Basically just ad lib around this part, it's a bit strange, but play around that area really.
Then,

-|7/1--7/1-|
-|7/1--7/1-|
-|7/1--7/1-|
-|7/1--7/1-|
-|7/1--7/1-|
-|7/1--7/1-|

carry on the original riff a bit.


This is the main riff
-|---------------------------------------------|
-|---------------------------------------------|
-|---------------------------------------------|
-|--------------------3-3-3-5-5-5-5------------|
-|7-7-7-7-7-7-7-7-7-7-5-5-5-7-7-7-77-7-7-7-7-7-|
-|5-5-5-5-5-5-5-5-5-5--------------5-5-5-5-5-5-|

Then this solo again.


-|5-5-5-5-5-5-5-5-5p6-5-5-5p6-5p6-5-5-5p7-5p7-5p8-5p7p8-5-5-5p7-5p7-5p7p8-|
-|------------------------------------------------------------------------|
-|------------------------------------------------------------------------|
-|------------------------------------------------------------------------|
-|------------------------------------------------------------------------|
-|------------------------------------------------------------------------|

-|5-5p7-5p7p8-7/1-|
-|------------7/1-|
-|------------7/1-|
-|------------7/1-|
-|------------7/1-|
-|------------7/1-|


Thats sort of it really. Obviously, it's not that simple, you have to work the timings 
for yourself. Note: The solos are very fast picking, if you didnt know the song before 
read the tab, this is of course important infomation.
Tap to rate this tab
# A B C D E F G H I J K L M N O P Q R S T U V W X Y Z