Guitaretab - guitar tabs
Song name
# A B C D E F G H I J K L M N O P Q R S T U V W X Y Z

Exploited - Fuck A Mod tab

The Exploited : The mods 

intro:

e|---------------------------------------------------------------------|
B|---------------------------------------------------------------------|
G|-7-7-7--7-7-7--7-10------7-7-7-8-8-8---8-8-7-7--7-7-----------10~----|
D|---------------------8-10--------------------------10-10--10---------|
A|---------------------------------------------------------------------|
E|---------------------------------------------------------------------|
[ Tab from: http://www.guitaretab.com/e/exploited/98766.html ]
e|---------------------------------------------------------------------|
B|---------------------------------------------------------------------|
G|-7-7-7--7-7-7--7-10------7-7-7-8-8-8---8-8-7-7--7-10-10-10-8---------|
D|---------------------8-10------------------------------------10-8~---|
A|---------------------------------------------------------------------|
E|---------------------------------------------------------------------|

verse1:
e|---------------------------------------------------|
B|---------------------------------------------------|
G|----666---666---666---666---666---666---666---666--|
D|----666---666---666---666---666---666---666---666--|
A|--4-444-4-444-4-444-4-444-4-444-4-444-4-444-4-444--|
E|---------------------------------------------------|

verse2:
e|---------------------------------------------------------|
B|---------------------------------------------------------|
G|--666---666---666---666-7-7-7-7-6-6-6-6-4-4-4-4-4/-99----|
D|--666---666---666---666-7-7-7-7-6-6-6-6-4-4-4-4-4/-99----|
A|--444-4-444-4-444-4-444-5-5-5-5-4-4-4-4-2-2-2-2-2/-77----|
E|---------------------------------------------------------|

and repeat...... Listen mods song for the Rhytme




Related for Fuck A Mod tab