Song name
# A B C D E F G H I J K L M N O P Q R S T U V W X Y Z

Explosions In The Sky - Our Last Days As Children tab

Explosions in the Sky
Our Last Days as Children
Friday Night Lights Soundtrack

Tabbed by: MHimel
E-mail: himel412@gmail.com

Standard tuning (eADGBE)

e|----------------------------------------------------------------------------|
B|----2---2---2---2---2---2---4---4---4---5---5---5---------------------------|
G|--4---4---4---4---4---4---6---6---6---6---6---6-----1---1---1---1---1---1---|
D|--------------------------------------------------4---4---4---4---4---4-----|
A|----------------------------------------------------------------------------|
E|----------------------------------------------------------------------------|

e|----------------------------------------------------------------------------|
B|----------------------------------------------------------------------------|
G|----4---4---4---------------------------------------------------------------|
D|--7---7---7------6---6---6--------------------------------------------------|
A|---------------7---7---7----------------------------------------------------|
E|----------------------------------------------------------------------------|
Tap to rate this tab
# A B C D E F G H I J K L M N O P Q R S T U V W X Y Z