Guitaretab - guitar tabs
Song name
# A B C D E F G H I J K L M N O P Q R S T U V W X Y Z

Explosions In The Sky - A Slow Dance tab

-------------------------------------------------------------------------------
			     A Slow Dance - Explosions in the Sky
-------------------------------------------------------------------------------
Tabbed by: Mike V
Email: edarotagv335@yahoo.com

Tuning: standard

Mark pt. 1
e|---------------------------------------------------------------------------|
B|--------------------------------------------12-14~-------------------------|
G|--14~-14141414-14~-14141414-14~-14141414-14~-------------------------------|
D|---------------------------------------------------------------------------|
A|---------------------------------------------------------------------------|
E|---------------------------------------------------------------------------|

Mark pt. 2
e|---------------------------------------------------------------------------|
B|--17~-17171717-17~-17171717-17~-17171717-17~-14-14~------------------------|
G|---------------------------------------------------------------------------|
D|---------------------------------------------------------------------------|
A|---------------------------------------------------------------------------|
E|---------------------------------------------------------------------------|

Munaf pt. 1 - 3 times
e|---------------------------------------------------------------------------|
B|---------------------------------------------------------------------------|
G|---------------------------------------------------------------------------|
D|--14~-14141414-14~14141414-14~-14141414-14~-12-11--------------------------|
A|---------------------------------------------------------------------------|
E|---------------------------------------------------------------------------|
[ Tab from: http://www.guitaretab.com/e/explosions-in-the-sky/115944.html ]
end of 4th time
e|---------------------------------------------------------------------------|
B|---------------------------------------------------------------------------|
G|----------------------------------6-----------6----------------------------|
D|--14~-14141414-14~-12-11/7-7-7-7-7---7-7-7-7-7-----------------------------|
A|----------------------------(7)-------(7)----------------------------------|
E|---------------------------------------------------------------------------|

Munaf pt. 2 (2:44)
e|--------------------------------------------------------------------------|
B|--------------------------------------------------------------------------|
G|--------------------------------------------------------------------------|
D|--14~-14141414-14~-14141414/16~-16-16-14~-14141414/19(19)(19)(19)-18\-----|
A|--------------------------------------------------------------------------|
E|--------------------------------------------------------------------------|

e|--------------------------------------------------------------------------|
B|--------------------------------------------------------------------------|
G|--------------------------------------------------------------------------|
D|--14~-14141414-14~-141414/19(19)(19~)-18~---18-18-18-18-18-18-------------|
A|------------------------------------------------(19)-(19)-(19)------------|
E|--------------------------------------------------------------------------|

Guitar 3
e|--------------------------------------------------------------------------|
B|--------------------------------------------------------------------------|
G|---------------------------------------------------------------9~-----9~--|
D|-------------12------------11------------12--------11~-(11)(11)--11-11----|
A|--(12)-12------(12)-12-------(12)-12------(12)-12------12-12-12--12-12----|
E|---------14-----------14------------14-----------14-----------------------|

| /  slide up
| \  slide down
| h  hammer-on
| p  pull-off
| ~  vibrato
| +  harmonic
| x  Mute note
===============================================================================
Related for A Slow Dance tab
×
A Slow Dance